PrimaNota.ru - самый крупный в мире бесплатный архив песенных текстов, аккордов, табулатур и нот


Blessthefall - Stay Still - текст песни, таба, бас-таба, видео

Регистрация Запомнить меня
Войти через:  Facebook Google Twitter Vk Yandex Mail.ru

Blessthefall - Stay Still - текст песни, таба, бас-таба, видео

Печатать
Просмотров: 293
The intro is rather easy to play than how hard it was to figure out 
and the others were really off or wrong tuning and harder to play, 
but anyways, heres the tab, pluck with your thumb and pointer finger.



E|-----------------------------------|
B|-----------------------------------|
G|----6--------10-------3------------| 
D|-----------------------------------|
A|----5--------8--------1------------|
D|-----------------------------------|

The Second Part

E|-----------------------------------|
B|-----------------------------------|
G|----6--------5--------3------------| 
D|-----------------------------------|
A|----5--------3--------1------------|
D|-----------------------------------|
Добавлено: 13.06.2012
Другие материалы по этой песне:

Страница создана 13.05.2012
http://primanota.ru/blessthefall/stay-still-chords.htm
Привет, Гость.
Предлагаем пройти революционный курс по гитаре.
Подарок от PrimaNota.Ru, забирай!