PrimaNota.ru - самый крупный в мире бесплатный архив песенных текстов, аккордов, табулатур и нот


Blessthefall - I Wouldnt Quit If Everybody Quit - таба, видео

Регистрация Запомнить меня
Войти через:  Facebook Google Twitter Vk Yandex Mail.ru

Blessthefall - I Wouldnt Quit If Everybody Quit - таба, видео

Печатать
Просмотров: 123
Уроки эстрадного вокала в Санкт-Петербурге
Blessthefall - I wouldn't quit, if everybody quit

One of the best bands and songs in the world in my opinion

sorry this is only Mike's (rythm guitarists) parts, i don't know Eric's (lead) parts...

I've tried to tab this as best i can and from ear so if you see any problems with it let 
know...

and i'll try and correct it, i hope this tab helps you learn to play this song


E|-----------------------------------------------------------------|
B|-----------------------------------------------------------------|
G|-----------------------------------------------------------------|x4
D|2/10-00--------------2/10-00--00-00--2/10-00--------------2/10-00|
A|2/10-00-8p7-6p5-4p3--2/10-00--00-00--2/10-00-8p7-6p5-4p3--2/10-00|
D|2/10-00--------------2/10-00--00-00--2/10-00--------------2/10-00|
       ..                   ..  .. ..       ..                   ..
(pause after 1st time through)

E|-------------------------------------------------------------|
B|-------------------------------------------------------------|
G|--------------10------12-----14-------17------14------12-----|...
D|3------8-------x-x18---x-x6---x--x12---x--x4---x--x3---x--x12|
A|3-x12--8-x12---8------10-----12-------15------12------10-----|
D|3------8-----------------------------------------------------|

        ...continued
E|-------------------------|
B|-------------------------|
G|--10------12------17-----|
D|---x--x4---x--x6---x--x8-|
A|---8------10------15-----|
D|-------------------------|

E|-------------------------------|
B|-------------------------------|
G|-------------------------------|
D|0-0-0-0-0-0-0-0--0-0-0-0000000-|
A|0-0-0-0-0-0-0-0--0-0-0-0000000-|
D|0-0-0-0-0-0-0-0--0-0-0-0000000-|
  . . . . . . . .  . . . .......
E|-------------|---------------------------------------------------------|
B|-------------|---------------------------------------------------------|
G|-------------|------------------------2----2---------------------------|x4
D|---bass-just-|--0--0---0000-0--0---00-2-00-2-00----00--0---------------|
A|-----plays---|--0--0---0000-0--0---00-0-00-0-00----00--0--8p7-6p5-4p3--|
D|-------------|--0--0---0000-0--0---00---00---00----00--0---------------|
                         ....        ..   ..
E|----------------------------------------------------------------|
B|----------------------------------------------------------------|
G|-------------10-----------------10-------12------14-------17----|...
D|3------8------x-x18--------------x--x18---x--x6---x--x12---x--x4|
A|3-x12--8-x12--8-------8/12~------8-------10------12-------15----|
D|3------8--------------------------------------------------------|

     ...continued
E|-------------------------------------------|
B|-------------------------------------------|
G|--14-------12-------10------12------17-----|
D|---x--x3----x--x12---x--x4---x--x6---x--x8-|
A|--12-------10--------8------10------15-----|
D|-------------------------------------------|

E|-----------------------------|
B|-----------------------------|
G|-----------------------------|x??
D|3-0000003-00-3-00-3-0000003--|
A|3-0000003-00-3-00-3-0000003--|
D|3-0000003-00-3-00-3-0000003--|
    ......  ..   ..   ......

E|--------------------------------------|
B|--------------------------------------|
G|---------I-think-both-guitars---------|
D|----------play-something-here---------|
A|---but-I-don't-know-what-it-is,-sorry-|
D|--------------------------------------|

E|---------------------------------------|
B|---------------------------------------|
G|---------------------------------------|x4
D|0-0~-0000-0-0~---0--0--0-0-0-0-00~-0~--|
A|0-0~-0000-0-0~---0--0--0-0-0-0-00~-0~--|
D|0-0~-0000-0-0~---0--0--0-0-0-0-00~-0~--|
  . .  .... . .    .  .  . . . . ..  .

hope you all like it, comment me please!
Добавлено: 19.09.2013
Другие материалы по этой песне:
  • Аккорды и текст

Страница создана 06.08.2013
http://primanota.ru/blessthefall/i-wouldnt-quit-if-everybody-quit-chords.htm
Привет, Гость.
Предлагаем пройти революционный курс по гитаре.
Подарок от PrimaNota.Ru, забирай!