PrimaNota.ru - самый крупный в мире бесплатный архив песенных текстов, аккордов, табулатур и нот


Blessthefall - 20 - текст песни, таба, видео

Регистрация Запомнить меня
Войти через:  Facebook Google Twitter Vk Yandex Mail.ru

Blessthefall - 20 - текст песни, таба, видео

Печатать
Просмотров: 122
-------------------------------------------------------------------------------
			     2.0 - Blessthefall
-------------------------------------------------------------------------------
Tabbed by:screamo_core
Email:pansy_screamo@hotmail.com

Tuning:Drop D

This song is just to easy
I wanted to tab something harder 
but i'm to busy today maybe tomorrow
check their album
www.myspace.com/blessthefall
even though this song is to short i took
a lot of space jaja

Guitar 1
(0:00-0:24)
e------------------------------------------|-|
B|-----------------------------------------|-|
G|-----------------------------------------|-|
D|--7-777777-7-7-777777-7-7-7-777777-7-----|0|
A|--5-555555-5-5-555555-5-5-5-555555-5-----|0|
D|-----------------------------------------|0|
    . ...... . . ...... . . . ...... .

(0:25-0:36)
e|------------------------------------------------------|
B|------------------------------------------------------|also you can add
G|------------------------------------------------------|the slide on parts
D|-77-77777-7777-77-77-77777-7777-77-77777-7777--12/1---|of this part
A|-00-00000-0000-00-00-00000-0000-00-00000-0000--12/1---|
D|-00-00000-0000-00-00-00000-0000-00-00000-0000--12/1---|
   .. ..... .... .. .. ..... .... .. ..... ....

(0:36-0:48)
e|------------------------------------------------|
B|------------------------------------------------|
G|------------------------------------------------|
D|-77-77777-7777-77-77-77777-7777-77-77777-7777---|
A|-00-00000-0000-00-00-00000-0000-00-00000-0000---|
D|-00-00000-0000-00-00-00000-0000-00-00000-0000---|
   .. ..... .... .. .. ..... .... .. ..... ....

(0:49-0:57)
e|------------------------------------------------|
B|------------------------------------------------|
G|------------------------------------------------|
D|-77------------77-77------------77--------------|
A|-00-00000-0000-00-00-00000-0000-00-00000-0000---|and it goes faster 
D|-00-00000-0000-00-00-00000-0000-00-00000-0000---|
   .. ..... .... .. .. ..... .... .. ..... ....

(0:57-1:00)
e|------------|
B|------------|
G|------------|
D|------------|
A|-1-1111-1---|
D|-0-0000-0---|
   . .... .
__________________________________________________________________________

Guitar 2
(0:00-0:24)
e|---------------|-|
B|---------------|-|
G|---------------|-|
D|---------------|0|
A|---FEEDBACK----|0|
E|---------------|0|


(0:25-0:36)
e|--------------------------------------------------------------|
B|--------------------------------------------------------------|
G|--------------------------------------------------------------|
D|--00-0000-000-2222222-00-0000-000-22222222-00-0000-000-12/1---|
A|--00-0000-000-2222222-00-0000-000-22222222-00-0000-000-12/1---|
D|--00-0000-000-2222222-00-0000-000-22222222-00-0000-000-12/1---|
    .. .... ... ....... .. .... ... ........ .. .... ...

(0:36-0:48)
e|------------------------------------------------|
B|------------------------------------------------|
G|------------------------------------------------|
D|-77------------77-77------------77--------------|
A|-00-00000-0000-00-00-00000-0000-00-00000-0000---|
D|-00-00000-0000-00-00-00000-0000-00-00000-0000---|
   .. ..... .... .. .. ..... .... .. ..... ....

(0:49-0:57)
e|------------------------------------------------|
B|------------------------------------------------|
G|------------------------------------------------|
D|------------------------------------------------|
A|-55-00000-0000-55-55-00000-0000-55-00000-0000---|and it goes faster 
D|-00-00000-0000-00-00-00000-0000-00-00000-0000---|
   .. ..... .... .. .. ..... .... .. ..... ....

(0:57-1:00)
e|---------------|
B|---------------|
G|---------------|a strange noise comes here
D|---------------|but you can play this
A|-0-0000-0------|
D|-0-0000-0------|
   . .... .

| /  slide up
| \  slide down
| h  hammer-on
| p  pull-off
| ~  vibrato
| +  harmonic
| x  Mute note
===============================================================================
Добавлено: 19.07.2013
Другие материалы по этой песне:
  • Аккорды и текст

Страница создана 19.07.2013
http://primanota.ru/blessthefall/20-chords.htm
Привет, Гость.
Предлагаем пройти революционный курс по гитаре.
Подарок от PrimaNota.Ru, забирай!