PrimaNota.ru - самый крупный в мире бесплатный архив песенных текстов, аккордов, табулатур и нот


Blessed Union Of Souls - Standing At The Edge Of The Earth - текст песни, таба, видео

Регистрация Запомнить меня
Войти через:  Facebook Google Twitter Vk Yandex Mail.ru

Blessed Union Of Souls - Standing At The Edge Of The Earth - текст песни, таба, видео

Печатать
Просмотров: 100
para po sa comments kung meron, paki-mail sa toy_fb@yahoo.com
o sa mvthilvano.jbros@gmail.com
please rate din, tenkyu! tenkyu!


Intro: Bm-G(2x)-Bm-G-A

   Bm            G             Bm            G
e|-------2-------------3~~-----------2-------------|
B|---3-----3---3---3-------------3-----3---3-------|
G|-----4-----4-------4-------------4-----4---------|
D|-------------------------------------------------|
A|-2---------------------------2-------------------|
E|---------------3---------------------------3~~---|

   Bm            G             A
e|-------2-------------3~~-----------5~-------5~~--|
B|---3-----3---3---3-------------5------5---5------|
G|-----4-----4-------4-------------6------6--------|
D|-------------------------------------------------|
A|-2-----------------------------------------------|
E|---------------3-------------5-------------------|

Do Intro Pattern on Verses…..

Verse1:
I knew that this moment would come in time
That I'd have to let go and watch you fly
I know youre coming back so im dying inside
Are you searching for words that you can't find?
Trying to hide your emotions, eyes don't lie
Guess there's no easy way to say goodbye….

Refrain1: Bm-G-A-G
I'll be standing at the edge of the earth
hoping that someday you'll come back again
I'll be standing at the edge of the earth
hoping that someday… someday…

Verse2:
Don't misunderstand what im trying to say
I don't want to let you leave this way
I want you to know that ill stand right by your side
*And I know this maybe
The very last time that well see each other cry
Whatever happens know that I'll….

Refrain2: (Same Chords as Refrain1)
I'll be standing at the edge of  the earth
hoping that  one day you'll come back again
I'll be standing at the edge of  the earth
hoping that someday you'll come back to me
I'll be praying for whatever its worth
believing that one day you'll come back again 
I'll be standing at the edge of  the earth hoping for someday…

Repeat *
Repeat Refrain2:

Refrain3: (Same Chords as Refrain1 & 2)
Waiting for someday, believing in someday, praying for someday
I'll belonging for someday, clinging to someday, cherishing someday
I'll be thinking of someday, dreaming of someday, wishing for someday
I'll be  living for someday, counting on someday, knowing that one day I will see you…

c",)
Добавлено: 13.05.2012
Другие материалы по этой песне:
  • Аккорды и текст

Страница создана 13.05.2012
http://primanota.ru/blessed-union-of-souls/standing-at-the-edge-of-the-earth-chords.htm
Привет, Гость.
Предлагаем пройти революционный курс по гитаре.
Подарок от PrimaNota.Ru, забирай!