PrimaNota.ru - самый крупный в мире бесплатный архив песенных текстов, аккордов, табулатур и нот


Blessed By A Broken Heart - Carry On - текст песни, таба, видео

Регистрация Запомнить меня
Войти через:  Facebook Google Twitter Vk Yandex Mail.ru

Blessed By A Broken Heart - Carry On - текст песни, таба, видео

Печатать
Просмотров: 139
I just did it with standard tuning. I will try to do the whole song.

--------------------12-10--------12s14-12--------------|
----------10--12-10-------12-10------------------------|
-----9h11----------------------------------------------|
-------------------------------------------------------|
-------------------------------------------------------|
-------------------------------------------------------|

--------------------12-10------------------------------|
----------10--12-10-------12-10--12s14-12--------------|
-----9h11----------------------------------------------|
-------------------------------------------------------|
-------------------------------------------------------|
-------------------------------------------------------|

this also repeats throughout the song.
Добавлено: 12.03.2012
Другие материалы по этой песне:
  • Аккорды и текст

Страница создана 12.03.2012
http://primanota.ru/blessed-by-a-broken-heart/carry-on-chords.htm
Привет, Гость.
Предлагаем пройти революционный курс по гитаре.
Подарок от PrimaNota.Ru, забирай!