PrimaNota.ru - самый крупный в мире бесплатный архив песенных текстов, аккордов, табулатур и нот


Bleeding Through - Tragedy Of Empty Streets - текст песни, таба, видео

Регистрация Запомнить меня
Войти через:  Facebook Google Twitter Vk Yandex Mail.ru

Bleeding Through - Tragedy Of Empty Streets - текст песни, таба, видео

Печатать
Просмотров: 121
Band: Bleeding Through
Album: The Truth
Track: 9
Song: Tragedy Of Empty Streets
Transcribed by: nor'easterbass

Tuning : BEADGBe (low to high)

Tab Key:
pm = palm mute
h = hammer on
p = pull off
ph (*) = pinch harmonic
~ = let ring
~~~ = vibrato
_3_ = triplet
_f3_ = false triplet (8th+16th, 8th+16th, 8th)
. = staccato
b = bend

Comments: This song's pretty easy to play if you can pick fast, but it's still
one of my favorites from "The Truth". This song is absolutely nuts live by the way. 
It's pretty much made for mosh pits. Anyways, I was really shocked that there are
virtually no tabs for any of their songs but the singles. So I've tabbed out a few
off "The Truth" that you can look for soon. Enjoy the tab and rock out!


Intro (the Main Riff)
(Gtr. I only)                                           (now all gtrs.)
e|-------------------------------------------------------------------|
B|-------------------------------------------------------------------|
G|-------------------------------------------------------------------|
D|-------------------------------------------------------------------|
A|-------------------------------------------------------5-2-3-6-3-2-|
E|-_3_------_3_------_3_------_3_------_3_------_3_------5-2-3-6-3-2-|
B|-000-0-0-0000-0-0--000-0-0-0000-0-0--000-0-0-0000-0-0--3-0-1-4-1-0-|
 pm***     ****      ***     ****      ***     ****


> Main Riff x4


Fill
e|-------------------|
B|-------------------|
G|-------------------|
D|-------------------|
A|-2-----------------|
E|-2--~--~--~--5-2-3-|
B|-o-----------3-0-1-|


Chorus                                                  (x4)
e|---------------------------------------------------------|
B|---------------------------------------------------------|
G|---------------------------------------------------------|
D|-4~~-----4---4~~~-----4---3~~~-----3---7~~~--------------|
A|---------------------------------------------------------|
E|--------------------------------------------2-3-2-5-2-3--|
B|-----000---0------000---0------000---0------0-1-0-3-0-1--|
     pm***   *      ***   *      ***   *


Bridge (those're tens)
e|------------------------------------------------------|
B|------------------------------------------------------|
G|------------------------------------------------------|
D|------.------.-------.------.-------------------------|
A|----.-9----.-10----.-9----.-10-10p9--------9----------|
E|----7------7-------7------7--------12109----12109-----|
B|-00-----00------00-----00---------------12-------1210-|
 pm**     **      **     **          * * **     * ** *

e|-----------------------------------------------||
B|-----------------------------------------------||
G|-----------------------------------------------||
D|-----------------------------------------------||
A|----10p0------9p0------------------------------||
E|---------9--------7---7h9----------------------||
B|-00-------000-------0-----00000000-3p2-003p200-|| (play twice)
 pm**       ***       *     ********     **   **


Break
                      (x3)                P.H.
e|-----------------------|----------------------|
B|-----------------------|----------------------|
G|-----------------------|----------------------|
D|-----------------------|----------------------|
A|-----------------------|----------------------|
E|-----------------------|-----------------*----|
B|-00000000-3p2-00-3p200-|-00000000-3p2-00-3~~~-|
 pm********     **    **   ********     **

(Gtr. I)            | (all)       |
e|------------------|-------------|
B|------------------|-------------|
G|------------------|-------------|
D|------------------|-------------|
A|------------------|-5-2-3-6-3-2-|
E|-_3_------_3_-----|-5-2-3-6-3-2-|
B|-000-0-0-0000-0-0-|-3-0-1-4-1-0-|
 pm***     ****


> Bridge (x2)


> Break


Interlude                                   
e|-----------------------------------------|
B|-----------------------------------------|
G|-----------------------------------------|
D|-----------------------------------------|
A|---------5-2-3-6-3-2---------5-2-3-6-3-2-|
E|---------5-2-3-6-3-2---------5-2-3-6-3-2-|
B|---------3-0-1-4-1-0---------3-0-1-4-1-0-|


> Main Riff (x2)

> Fill

> Chorus (x6)

Outro (Gtr. III. Over Chorus x2)
e|-10----10----12----12----10----10----15---------|
B|-13b-~-13b-~-15b-~-15b-~-13b-~-13b-~-18b--~--~--|
G|------------------------------------------------|
D|------------------------------------------------|
A|------------------------------------------------|
E|------------------------------------------------|
B|------------------------------------------------|


Last Measure of Chorus riff:
e|-------------|
B|-------------|
G|-------------|
D|-------------|
A|-------5-2-3-|
E|-2-3-2-5-2-3-|
B|-0-1-0-3-0-1-|

Enjoy and please rate me goood.
Добавлено: 07.07.2012
Другие материалы по этой песне:

Страница создана 15.04.2012
http://primanota.ru/bleeding-through/tragedy-of-empty-streets-chords.htm
Привет, Гость.
Предлагаем пройти революционный курс по гитаре.
Подарок от PrimaNota.Ru, забирай!