PrimaNota.ru - самый крупный в мире бесплатный архив песенных текстов, аккордов, табулатур и нот


Bleeding Through - Line In The Sand - текст песни, таба, бас-таба, видео

Регистрация Запомнить меня
Войти через:  Facebook Google Twitter Vk Yandex Mail.ru

Bleeding Through - Line In The Sand - текст песни, таба, бас-таба, видео

Печатать
Просмотров: 154
Tuning: Drop C

Intro
|---------------------------------------------------------------|
|-------------------------------------4---------------4---------|
|--------------------------6--------4---4-----------3---3-------|
|----6-----8-----9-----8----------6-------6---6---5-------5---5-| 4x
|--6---6-----6-----6-----6----6-7-----------7---6-----------6---|
|6-------6-----6-----6------------------------------------------|

|---------------------------------------------------------------|
|---------------------------------------------------------------|
|--9-----9-----9---8-----8-----8--------------------------------|
|----9-----9---------8-----8---------6-----8\4---4-----2-----2--| 2x
|7-----7-----7---6-----6-----6-----6---6-------2---2-----2-----2|
|--------------------------------6-------6-----------2-----2----|

|--------------------------|
|--------------------------|
|--------------------------|
|----6-----8\4---4---------|
|--6---6-------2-2---------|
|6-------6-------2---------|

Verse 1

|------------------------------------------------------------------|
|----------------------------------------4-------------------------|
|--------8---------------8-----------------------------------------|
|----6-----6---6-----6-----6---6-----2-----2---2-----1-------4---4-| 4x
|--6---6-----6-----6---6-----6-----2---2-----2-----1---1---4---4-4-|
|6---------------6---------------2---------------1-------4-------4-|

Chorus

|----------------------------------------|
|----------------------------------------|
|----------------------------------------|
|----------------------------------------|
|6666-6666-6666-6666-2222-2222-1111-4444-|
|6666-6666-6666-6666-2222-2222-1111-4444-|
                                              4x   
|----------------------------------------|
|----------------------------------------|
|----------------------------------------|
|----------------------------------------|  
|6666-6666-6666-6666-4444-4444-2222-1111-|
|6666-6666-6666-6666-4444-4444-2222-1111-|

Verse 2

|----------------------------------------------------------------|
|----------------------------------------4-----------------------|
|--------8---------------8---------------------------------------|
|----6-----6---6-----6-----6---6-----2-----2---2-----1-------4---| 4x
|--6---6-----6-----6---6-----6-----2---2-----2-----1---1---4---4-|
|6---------------6---------------2---------------1-------4-------|

Chorus

|----------------------------------------|
|----------------------------------------|
|----------------------------------------|
|----------------------------------------|
|6666-6666-6666-6666-2222-2222-1111-4444-|
|6666-6666-6666-6666-2222-2222-1111-4444-|
                                              4x   
|----------------------------------------|
|----------------------------------------|
|----------------------------------------|
|----------------------------------------|  
|6666-6666-6666-6666-4444-4444-2222-1111-|
|6666-6666-6666-6666-4444-4444-2222-1111-|

Solo (I don't know the solo but these are the background chords)

|----------------------------------------|
|----------------------------------------|
|----------------------------------------|
|----------------------------------------|  3x
|6666-6666-6666-6666-2222-2222-1111-4444-|
|6666-6666-6666-6666-2222-2222-1111-4444-|


|-------------------------------------------------|
|-------------------------------------------------|
|-------------------------------------------------|
|-------------------------------------------------| 
|6666-6666-6666-6666-2222-2222-1111-4444-4444-4444|
|6666-6666-6666-6666-2222-2222-1111-4444-4444-4444|

Chorus

|----------------------------------------|
|----------------------------------------|
|----------------------------------------|
|----------------------------------------|
|6666-6666-6666-6666-2222-2222-1111-4444-|
|6666-6666-6666-6666-2222-2222-1111-4444-|
                                              4x   
|----------------------------------------|
|----------------------------------------|
|----------------------------------------|
|----------------------------------------|  
|6666-6666-6666-6666-4444-4444-2222-1111-|
|6666-6666-6666-6666-4444-4444-2222-1111-|


Добавлено: 01.04.2012
Другие материалы по этой песне:

Страница создана 16.03.2012
http://primanota.ru/bleeding-through/line-in-the-sand-chords.htm
Привет, Гость.
Предлагаем пройти революционный курс по гитаре.
Подарок от PrimaNota.Ru, забирай!