PrimaNota.ru - самый крупный в мире бесплатный архив песенных текстов, аккордов, табулатур и нот


Bleeding Knees Club - Feel - аккорды и текст, видео

Регистрация Запомнить меня
Войти через:  Facebook Google Twitter Vk Yandex Mail.ru

Bleeding Knees Club - Feel - аккорды и текст, видео

Печатать
Просмотров: 106
Feel
Bleeding Knees Club
-------------------------------------------------------------------------------
                             Feel - Bleeding Knees Club
-------------------------------------------------------------------------------
Tabbed by: Lachie Gilmour
E-mail: lachie.gee.mour@gmail.com

Tuning: Standard

Intro (G, D, A, C) x4 

Lead Guitar During Intro (and breaks)
e|---------------------------------------------------------------------------|
B|---------------------------------------------------------------------------|
G|--12-11---------11-12-14-12-11---12-11---------11-12-----------------------|
D|--------12---12-------------------------12---12----------------------------|
A|---------------------------------------------------------------------------|
E|---------------------------------------------------------------------------|

G    D        A       C                 G
So i miss you well, i hope you're doing fine
       D              A            C              G
I know that you value trust, could never give you mine
         D              A     C            G
I wonder why you shed a tear, every time i speak
       D                 A          C             G
I know that my words can hurt, your confidence is weak

(Lead Break)

G          D                A      C             G
Our common ground is pretty small, conversations short
         D                 A        C             G
I said i don't need you at all, but i'm your life support
           D            A          C             G
I see your life wearing thin, your body language lies
                 D               A         C                     
This things been dragging on too long, i'm sick of you

   G                  D     A                      C
So please, say you're sorry, i'm sick of all these rules
  G             D        A             C
I know that you need me, but do i need you, i do

(Lead Break)

G             D              A       C              G
Now that i've given you some time, i appreciate you more
       D           A     C               G
I stop thinking as if, a relationships a chore
             D              A         C                  G
I think i've waited for too long, and now i've missed my chance
              D            A             C                     
This time i'm saying i was wrong, so can you

G                  D     A                      C
Please, say you're sorry, i'm sick of all these rules
  G             D        A             C
I know that you need me, but do i need you, i do

(Bridge)
G, A, C, G (palm muted) x4

(1, 2, 3, 4)
G                  D     A                      C
Please, say you're sorry, i'm sick of all these rules
  G             D        A             C
I know that you need me, but do i need you
G                  D     A                      C
Please, say you're sorry, i'm sick of all these rules
  G             D        A             C
I know that you need me, but do i need you, i do

 
Chords:
   G      D     A     C    G (low)   *use low G in the chorus and the bridge
e|---------------------------------------------------------------------------|
B|---------------------------------------------------------------------------|
G|-12-----7------------------------------------------------------------------|
D|-12-----7-----7----10----5-------------------------------------------------|
A|-10-----5-----7----10----5-------------------------------------------------|
E|--------------5-----8----3-------------------------------------------------|
Добавлено: 03.12.2013
Другие материалы по этой песне:
  • Аккорды и текст

Страница создана 03.12.2013
http://primanota.ru/bleeding-knees-club/feel-chords.htm
Привет, Гость.
Предлагаем пройти революционный курс по гитаре.
Подарок от PrimaNota.Ru, забирай!