PrimaNota.ru - самый крупный в мире бесплатный архив песенных текстов, аккордов, табулатур и нот


Bleeding Knees Club - Bad Guys - таба, видео

Регистрация Запомнить меня
Войти через:  Facebook Google Twitter Vk Yandex Mail.ru

Bleeding Knees Club - Bad Guys - таба, видео

Печатать
Просмотров: 81
Song:Bad Guys
Band: Bleeding Knees Club
Album: Bad Guys EP
Tabbed by Chris Dessens

http://thebleedingkneesclub.bandcamp.com/
https://www.youtube.com/watch?v=NQ0vuoZolEw

Intro/Bridge
A->B with occasional A# inbeteween
E||--5----|--7----|--5----6----7----6--5--||
B||--5----|--7----|--5----6----7----6--5--||
G||--6----|--8----|--6----7----8----7--6--||
D||--7----|--9----|--7----8----9----8--7--||
A||--7----|--9----|--7----8----9----8--7--||
E||--5----|--7----|--5----6----7----6--5--||

Chorus
Strumming pattern for chorus and verses D D U U D U
E||--12-12-12-12-12-12-|---9--9--9--9--9--9-|--7-7-7-7-7-7-7-7-7-7-7-7-||
B||--12-12-12-12-12-12-|---9--9--9--9--9--9-|--7-7-7-7-7-7-7-7-7-7-7-7-||
G||--13-13-13-13-13-13-|--10-10-10-10-10-10-|--8-8-8-8-8-8-8-8-8-8-8-8-||
D||--14-14-14-14-14-14-|--11-11-11-11-11-11-|--9-9-9-9-9-9-9-9-9-9-9-9-||x
A||--14-14-14-14-14-14-|--11-11-11-11-11-11-|--9-9-9-9-9-9-9-9-9-9-9-9-||
E||--12-12-12-12-12-12-|---9--9--9--9--9--9-|--7-7-7-7-7-7-7-7-7-7-7-7-||

Verse
E||--12-12-12-12-12-12-|---9--9--9--9--9--9-||
B||--12-12-12-12-12-12-|---9--9--9--9--9--9-||
G||--13-13-13-13-13-13-|--10-10-10-10-10-10-||
D||--14-14-14-14-14-14-|--11-11-11-11-11-11-||x4
A||--14-14-14-14-14-14-|--11-11-11-11-11-11-||
E||--12-12-12-12-12-12-|---9--9--9--9--9--9-||

E||--5-5-5-5-5-5-|--12-12-12-12-12-12-||
B||--5-5-5-5-5-5-|--12-12-12-12-12-12-||
G||--6-6-6-6-6-6-|--13-13-13-13-13-13-||x4
D||--7-7-7-7-7-7-|--14-14-14-14-14-14-||
A||--7-7-7-7-7-7-|--14-14-14-14-14-14-||
E||--5-5-5-5-5-5-|--12-12-12-12-12-12-||

Pre Chorus
E||---9--9--9--9--9--9--9--9-|--7-7-7-7-7-7-7-7-||
B||---9--9--9--9--9--9--9--9-|--7-7-7-7-7-7-7-7-||
G||--10-10-10-10-10-10-10-10-|--8-8-8-8-8-8-8-8-||
D||--11-11-11-11-11-11-11-11-|--9-9-9-9-9-9-9-9-||
A||--11-11-11-11-11-11-11-11-|--9-9-9-9-9-9-9-9-||
E||---9--9--9--9--9--9--9--9-|--7-7-7-7-7-7-7-7-||

End On
E||--12----||
B||--12----||
G||--13----||
D||--14----||
A||--14----||
E||--12----||

Order
Intro
Chorus
Verse
PreChorus
Chorus
Verse
Chorus
Bride
Chorus


Lyrics

She ran away
You made her cry
You sit alone
And wonder why
You're 25
And Such A

*tick tick tick tick*
Bad Guy ,You know you are a (x2)
woo

Bad Guys that rule the town
Goatees are on the ground
Good guys just cant be found around here

They smoke at night
They make girls cry
They get so high
They are a bad guy

Bad Guy ,You know you are a (x2)
woo

Leather jacket and ....? boots
Getting drunk up on the roof
You know that you are such a fool

They smoke at night
They make girls cry
They get so high
They are a bad guy

Bad Guy ,You know you are a (x2)
woo

Tattoed skin
Motorbike sold
Thats when you know 
Youre getting Old
Youre 45
and still a 

Bad Guy ,You know you are a (x2)
woo


Crazybang
Добавлено: 07.11.2013
Другие материалы по этой песне:
  • Аккорды и текст

Страница создана 07.11.2013
http://primanota.ru/bleeding-knees-club/bad-guys-chords.htm
Привет, Гость.
Предлагаем пройти революционный курс по гитаре.
Подарок от PrimaNota.Ru, забирай!