PrimaNota.ru - самый крупный в мире бесплатный архив песенных текстов, аккордов, табулатур и нот


Bleed The Dream - Just Like I Remember - текст песни, таба, видео

Регистрация Запомнить меня
Войти через:  Facebook Google Twitter Vk Yandex Mail.ru

Bleed The Dream - Just Like I Remember - текст песни, таба, видео

Печатать
Просмотров: 123
--------------------------------------------------------------------------
                  JUST LIKE I REMEMBER - bleed the dream
--------------------------------------------------------------------------

Band: Bleed the Dream
Album: Built by Blood (Warcon, 2005)
Song: Just Like I Remember

Tabbed by Kyle T.
Contact: pants_me@hotmail.com
Site: www.wqhosting.com/~ohpkyle/

Dropped-D tuning (DADGbe)

Legend:

  .   - Palm mute                            o     - Repeat bar
  x   - Dead note                            o
  ~   - Let ring                           _______
  %   - Rest                              |1,2...  - Endings for repeats
  /   - Slide up
  \   - Slide down                           Nx    - Number of repeats
  h   - Hammer on                            v     - Vibrato
  b   - bend                                 *     - Staccato
  r   - release                              n     - Bar number
 (x)  - Note tied over from previous bar     f     - First time only

---

Note: I heard this on the Warped Tour '05 compilation disc a friend sent me.
It had an interesting melody, so I couldn't help myself in trying to figure
it out... And maybe I have a soft spot for emo somewhere in the cockles of
my broken/soulless/bleeding/black/etc. heart.

I'm not 100% certain the tuning is Dropped-D. You can (relatively) easily
combine the two guitars into one -- if you can switch to the finger positions
fast enough:

e|-----------------|
b|-----------------|
G|-6-5---5-6---5-6-|
D|-6-6-6-6-6-4-4-4-|
A|-4-4-6-6-6-4-4-4-|
D|-----6-6-6-4-4-4-|

---

Chords Used:

    C#5 G#5 F#5 A#5  C5 G#sus2 G#sus4
e|-------------------------------4---|
b|-------------------------------4---|
G|---6---------------5-----------6---|
D|---6---6---4---8---5----8------6---|
A|---4---6---4---8---3----6----------|
D|-------6---4---8--------6----------|


Intro (0:00-0:24):

4/4
 1                 2                 3                 4
e|-----------------|-----------------|-----------------|-----------------|
b|-----------------|-----------------|-----------------|-----------------|
G|-6-6-6-6-6-6-6-6-|-6-6-6-6-6-6-6-6-|-----------------|-----------------|
D|-6-6-6-6-6-6-6-6-|-6-6-6-6-6-6-6-6-|-6-6-6-6-6-6-6-6-|-6-6-6-6-6-6-6-6-|
A|-4-4-4-4-4-4-4-4-|-4-4-4-4-4-4-4-4-|-6-6-6-6-6-6-6-6-|-6-6-6-6-6-6-6-6-|
D|-----------------|-----------------|-6-6-6-6-6-6-6-6-|-6-6-6-6-6-6-6-6-|
 | . . . . . . . .   . . . . . . . .   . . . . . . . .   . . . . . . . . |
 |                                                                       |
e|-----------------|-----------------|-----------------|-----------------|
b|-----------------|-----------------|-----------------|-----------------|
G|-----------------|-----------------|-----------------|-----------------|
D|--------%--------|--------%--------|--------%--------|--------%--------|
A|-----------------|-----------------|-----------------|-----------------|
D|-----------------|-----------------|-----------------|-----------------|

 5                 6                 7                 8
e|-----------------|-----------------|-----------------|-----------------|
b|-----------------|-----------------|-----------------|-----------------|
G|-----------------|-----------------|-----------------|-----------------|
D|-4-4-4-4-4-4-4-4-|-4-4-4-4-4-4-4-4-|-4-4-4-4-4-4-4-4-|-4-4-4-4-4-4-4-4-|
A|-4-4-4-4-4-4-4-4-|-4-4-4-4-4-4-4-4-|-4-4-4-4-4-4-4-4-|-4-4-4-4-4-4-4-4-|
D|-4-4-4-4-4-4-4-4-|-4-4-4-4-4-4-4-4-|-4-4-4-4-4-4-4-4-|-4-4-4-4-4-4-4-4-|
 | . . . . . . . .   . . . . . . . .   . . . . . . . .   . . . . . . . . |
 |                                                                       |
e|-----------------|-----------------|-----------------|-----------------|
b|-----------------|-----------------|-----------------|-----------------|
G|-----------------|-----------------|-----------------|---------feedback|
D|--------%--------|--------%--------|--------%--------|----------begins-|
A|-----------------|-----------------|-----------------|-----------------|
D|-----------------|-----------------|-----------------|-----------------|

 9                 10                11                12
e|-----------------|-----------------|-----------------|-----------------|
b|-----------------|-----------------|-----------------|-----------------|
G|-6-6-6-6-6-6-6-6-|-6-6-6-6-6-6-6-6-|-----------------|-----------------|
D|-6-6-6-6-6-6-6-6-|-6-6-6-6-6-6-6-6-|-6-6-6-6-6-6-6-6-|-6-6-6-6-6-6-6-6-|
A|-4-4-4-4-4-4-4-4-|-4-4-4-4-4-4-4-4-|-6-6-6-6-6-6-6-6-|-6-6-6-6-6-6-6-6-|
D|-----------------|-----------------|-6-6-6-6-6-6-6-6-|-6-6-6-6-6-6-6-6-|
 | . . . . . . . .   . . . . . . . .   . . . . . . . .   . . . . . . . . |
 |                                                                       |
e|-----------------|-----------------|-----------------|-----------------|
b|-----------------|-----------------|-----------------|-----------------|
G|-----------------|-----------------|-----------------|-----------------|
D|-----------------|-----------------|-----------------|-----------------|
A|-----------------|-----------------|-----------------|-----------------|
D|-----------------|-----------------|-----------------|-----------------|

 13                14                15                16
e|-----------------|-----------------|-----------------|-----------------|
b|-----------------|-----------------|-----------------|-----------------|
G|-----------------|-----------------|-----------------|-----------------|
D|-4-4-4-4-4-4-4-4-|-4-4-4-4-4-4-4-4-|-4-4-4-4-4-4-4-4-|-4-4-4-4-4-4-4-4-|
A|-4-4-4-4-4-4-4-4-|-4-4-4-4-4-4-4-4-|-4-4-4-4-4-4-4-4-|-4-4-4-4-4-4-4-4-|
D|-4-4-4-4-4-4-4-4-|-4-4-4-4-4-4-4-4-|-4-4-4-4-4-4-4-4-|-4-4-4-4-4-4-4-4-|
 | . . . . . . . .   . . . . . . . .   . . . . . . . .   . . . . . . . . |
 |                                                                       |
e|-----------------|-----------------|-----------------|-----------------|
b|-----------------|-----------------|-----------------|-----------------|
G|-----------------|-----------------|-----------------|---------feedback|
D|-----------------|-----------------|-----------------|------------max--|
A|-----------------|-----------------|-----------------|-----------------|
D|-----------------|-----------------|-----------------|-----------------|


   You always had a way with words, in letters back and forth we'd send.
   And back when we were foolish kids, the world was only as big as our hearts.


Chorus (0:24-0:48):

 17                18                19                20
e|-----------------|-----------------|-----------------|-----------------|
b|-----------------|-----------------|-----------------|-----------------|
G|o6-6-6-6-6-6-6-6-|-6-6-6-6-6-6-6-6-|-----------------|-----------------|
D|o6-6-6-6-6-6-6-6-|-6-6-6-6-6-6-6-6-|-6-6-6-6-6-6-6-6-|-6-6-6-6-6-6-6-6-|
A|-4-4-4-4-4-4-4-4-|-4-4-4-4-4-4-4-4-|-6-6-6-6-6-6-6-6-|-6-6-6-6-6-6-6-6-|
D|-----------------|-----------------|-6-6-6-6-6-6-6-6-|-6-6-6-6-6-6-6-6-|
 |                                                                       |
 |                                                                       |
e|-----------------|-----------------|-----------------|-----------------|
b|-----------------|-----------------|-----------------|-----------------|
G|-6-6-6-6-6-6-6-6-|-5-5-5-5-6-6-6-6-|-----------------|-5-5-5-5-6-6-6-6-|
D|-6-6-6-6-6-6-6-6-|-x-x-x-x-x-x-x-x-|-6-6-6-6-6-6-6-6-|-x-x-x-x-x-x-x-x-|
A|-4-4-4-4-4-4-4-4-|-3-3-3-3-4-4-4-4-|-6-6-6-6-6-6-6-6-|-3-3-3-3-4-4-4-4-|
D|-----------------|-----------------|-6-6-6-6-6-6-6-6-|-----------------|

 21                22                23                24
e|-----------------|-----------------|-----------------|-----------------|
b|-----------------|-----------------|-----------------|-----------------|
G|-----------------|-----------------|-----------------|----------------o|
D|-4-4-4-4-4-4-4-4-|-4-4-4-4-4-4-4-4-|-4-4-4-4-4-4-4-4-|-4-4-4-4-4-4-4-4o|
A|-4-4-4-4-4-4-4-4-|-4-4-4-4-4-4-4-4-|-4-4-4-4-4-4-4-4-|-4-4-4-4-4-4-4-4-|
D|-4-4-4-4-4-4-4-4-|-4-4-4-4-4-4-4-4-|-4-4-4-4-4-4-4-4-|-4-4-4-4-4-4-4-4-|
 |                                                                       |
 |                                                                       |
e|-----------------|-----------------|-----------------|-----------------|
b|-----------------|-----------------|-----------------|-----------------|
G|-----------------|-5-5-5-5-6-6-6-6-|-6-6-6-6-6-6-6-6-|-5-5-5-5-6-6-6-6-|
D|-4-4-4-4-4-4-4-4-|-x-x-x-x-x-x-x-x-|-x-x-x-x-x-x-x-x-|-x-x-x-x-x-x-x-x-|
A|-4-4-4-4-4-4-4-4-|-3-3-3-3-4-4-4-4-|-4-4-4-4-4-4-4-4-|-3-3-3-3-4-4-4-4-|
D|-4-4-4-4-4-4-4-4-|-----------------|-----------------|-----------------|

   And she walks just like I remember, like something's on her mind.
   And she says that she would still remember when everything, everything
   was fine.

Pre-Verse (0:48-1:00):

 25                26                27                28
e|-----------------|-----------------|-----------------|-----------------|
b|-----------------|-----------------|-----------------|-----------------|
G|-----6-6-6-6-----|-----6-6-6-6-----|-----------------|-----------------|
D|-6-6-6-6-6-6-6-6-|-6-6-6-6-6-6-6-6-|-----6-6-6-6-----|-----6-6-6-6-----|
A|-4-4-4-4-4-4-4-4-|-4-4-4-4-4-4-4-4-|-6-6-6-6-6-6-6-6-|-6-6-6-6-6-6-6-6-|
D|-----------------|-----------------|-6-6-6-6-6-6-6-6-|-6-6-6-6-6-6-6-6-|
 | . .         . .   . .         . .   . .         . .   . .         . . |
 |                                                                       |
e|-4-4-4-4-4-4-4-4-|-----------------|-4-4-4-4-4-4-4-4-|-----------------|
b|-----------------|-4-4-4-4---------|-----------------|-4-4-4-4---------|
G|-----------------|---------6-6-6-6-|-----------------|---------6-6-6-6-|
D|-----------------|-----------------|-----------------|-----------------|
A|-----------------|-----------------|-----------------|-----------------|
D|-----------------|-----------------|-----------------|-----------------|

 29                30                 31               32
e|-----------------|-----------------|-----------------|-----------------|
b|-----------------|-----------------|-----------------|-----------------|
G|-----------------|-----------------|-----------------|-----------------|
D|-----4-4-4-4-----|-----4-4-4-4-----|-----4-4-4-4-----|-----4-4-4-4-----|
A|-4-4-4-4-4-4-4-4-|-4-4-4-4-4-4-4-4-|-4-4-4-4-4-4-4-4-|-4-4-4-4-4-4-4-4-|
D|-4-4-4-4-4-4-4-4-|-4-4-4-4-4-4-4-4-|-4-4-4-4-4-4-4-4-|-4-4-4-4-4-4-4-4-|
 | . .         . .   . .         . .   . .         . .   . .         . . |
 |                                                                       |
e|-4-4-4-4-4-4-4-4-|-----------------|-4-4-4-4-4-4-4-4-|-----------------|
b|-----------------|-4-4-4-4---------|-----------------|-4-4-4-4---------|
G|-----------------|---------6-6-6-6-|-----------------|---------6-6-6-6-|
D|-----------------|-----------------|-----------------|-----------------|
A|-----------------|-----------------|-----------------|-----------------|
D|-----------------|-----------------|-----------------|-----------------|

   I wish everything was fine.


Verse (1:00-1:37):
  
 33                34                35                36
e|-----------------|-----------------|-----------------|-----------------|
b|-----------------|-----------------|-----------------|-----------------|
G|o----6-6-6-6-----|-----6-6-6-6-----|-----------------|-----------------|
D|o6-6-6-6-6-6-6-6-|-6-6-6-6-6-6-6-6-|-----6-6-6-6-----|-----6-6-6-6-----|
A|-4-4-4-4-4-4-4-4-|-4-4-4-4-4-4-4-4-|-6-6-6-6-6-6-6-6-|-6-6-6-6-6-6-6-6-|
D|-----------------|-----------------|-6-6-6-6-6-6-6-6-|-6-6-6-6-6-6-6-6-|
 | . .         . .   . .         . .   . .         . .   . .         . . |
 |                                                                       |
e|-----------------|-----------------|-----------------|-----------------|
b|-----------------|-----------------|-----------------|-----------------|
G|-6\--------------|-----6-6-6-6-----|-----------------|-----------------|
D|-----------------|-6-6-6-6-6-6-6-6-|-----6-6-6-6-----|-----6-6-6-6-----|
A|-----------------|-4-4-4-4-4-4-4-4-|-6-6-6-6-6-6-6-6-|-6-6-6-6-6-6-6-6-|
D|-----------------|-----------------|-6-6-6-6-6-6-6-6-|-6-6-6-6-6-6-6-6-|
                     . .         . .   . .         . .   . .         . . 
   f

  _______________________________________________________________________
 |1.
 37                38                39                40
e|-----------------|-----------------|-----------------|-----------------|
b|-----------------|-----------------|-----------------|-----------------|
G|-----------------|-----------------|-----------------|----------------o|
D|-----4-4-4-4-----|-----4-4-4-4-----|-----4-4-4-4-----|-----4-4-4-4----o|
A|-4-4-4-4-4-4-4-4-|-4-4-4-4-4-4-4-4-|-4-4-4-4-4-4-4-4-|-4-4-4-4-4-4-4-4-|
D|-4-4-4-4-4-4-4-4-|-4-4-4-4-4-4-4-4-|-4-4-4-4-4-4-4-4-|-4-4-4-4-4-4-4-4-|
 | . .         . .   . .         . .   . .         . .   . .         . . |
e|-----------------|-----------------|-----------------|-----------------|
b|-----------------|-----------------|-----------------|-----------------|
G|-----------------|-----------------|-----------------|-----------------|
D|-----4-4-4-4-----|-----4-4-4-4-----|-----4-4-4-4-----|-----4-4-4-4-----|
A|-4-4-4-4-4-4-4-4-|-4-4-4-4-4-4-4-4-|-4-4-4-4-4-4-4-4-|-4-4-4-4-4-4-4-4-|
D|-4-4-4-4-4-4-4-4-|-4-4-4-4-4-4-4-4-|-4-4-4-4-4-4-4-4-|-4-4-4-4-4-4-4-4-|
   . .         . .   . .         . .   . .         . .   . .         . .

  _______________________________________________________________________
 |2.
 41                42                43                44
e|-----------------|-----------------|-----------------|-----------------|
b|-----------------|-----------------|-----------------|-----------------|
G|-----------------|-----------------|-----------------|-----------------|
D|-------------4---|(4)--------------|(4)--------------|(4)--------------|
A|-4-4-----4---4---|(4)--------------|(4)--------------|(4)--------------|
D|-4-4-----4---4---|(4)--------------|(4)--------------|(4)--------------|
 |                                                                       |
 |                                                                       |
e|-------------4---|(4)--------------|-----------------|---4---------4---|
b|-------------4---|(4)--------4-----|-----------------|-----------------|
G|-------------6---|(6)----------6---|-------5---5---5-|---------5-----5-|
D|-------------6---|(6)------------6-|-----6---6---6---|-6-----6---6-----|
A|-4-4-----4---4---|(4)--------------|-----------------|-----------------|
D|-4-4-----4---4---|(4)--------------|-----------------|-----------------|
 
 45                46                47                48
e|-----------------|-----------------|-----------------|-----------------|
b|-----------------|-----------------|-----------------|-----------------|
G|-----6-6-6-6-----|-----6-6-6-6-----|-----------------|-----------------|
D|-6-6-6-6-6-6-6-6-|-6-6-6-6-6-6-6-6-|-----6-6-6-6-----|-----6-6-6-6-----|
A|-4-4-4-4-4-4-4-4-|-4-4-4-4-4-4-4-4-|-6-6-6-6-6-6-6-6-|-6-6-6-6-6-6-6-6-|
D|-----------------|-----------------|-6-6-6-6-6-6-6-6-|-6-6-6-6-6-6-6-6-|
 | . .         . .   . .         . .   . .         . .   . .         . . |
 |                                                                       |
e|-----------------|-----------------|-----------------|-----------------|
b|-----------------|-----------------|-----------------|-----------------|
G|-----6-6-6-6-----|-----6-6-6-6-----|-----------------|-----------------|
D|-6-6-6-6-6-6-6-6-|-6-6-6-6-6-6-6-6-|-----6-6-6-6-----|-----6-6-6-6-----|
A|-4-4-4-4-4-4-4-4-|-4-4-4-4-4-4-4-4-|-6-6-6-6-6-6-6-6-|-6-6-6-6-6-6-6-6-|
D|-----------------|-----------------|-6-6-6-6-6-6-6-6-|-6-6-6-6-6-6-6-6-|
   . .         . .   . .         . .   . .         . .   . .         . . 

 49                50                51                52
e|-----------------|-----------------|-----------------|-----------------|
b|-----------------|-----------------|-----------------|-----------------|
G|-----------------|-----------------|-----------------|-----------------|
D|-4---------------|(4)--------------|-4---------------|(4)--------------|
A|-4---------------|(4)--------------|-4---------------|(4)--------------|
D|-4---------------|(4)--------------|-4---------------|(4)--------------|
 |                                                                       |
 |                                                                       |
e|-----------------|-----------------|-----------------|-4-------4-------|
b|-----------------|-----------------|-----------------|-----------------|
G|-----------------|-----------------|-----------------|---6-6-----6---5-|
D|--------%--------|--------%--------|--------%--------|-------6-----6---|
A|-----------------|-----------------|-----------------|-----------------|
D|-----------------|-----------------|-----------------|-----------------|

   You thought we had it figured out. And nothing could stop us now.
   But sometimes every thought, they turn to it.
   I wish we were those foolish kids. We could go back inside again.
   We always knew this night would come but I could never give you up,
   So just go on lying 'cause we can just pretend.


Chorus (1:37-2:00):

 53                54                55                56
e|-----------------|-----------------|-----------------|-----------------|
b|-----------------|-----------------|-----------------|-----------------|
G|o6-6-6-6-6-6-6-6-|-6-6-6-6-6-6-6-6-|-----------------|-----------------|
D|o6-6-6-6-6-6-6-6-|-6-6-6-6-6-6-6-6-|-6-6-6-6-6-6-6-6-|-6-6-6-6-6-6-6-6-|
A|-4-4-4-4-4-4-4-4-|-4-4-4-4-4-4-4-4-|-6-6-6-6-6-6-6-6-|-6-6-6-6-6-6-6-6-|
D|-----------------|-----------------|-6-6-6-6-6-6-6-6-|-6-6-6-6-6-6-6-6-|
 |                                                                       |
 |                                                                       |
e|-----------------|-----------------|-----------------|-----------------|
b|-----------------|-----------------|-----------------|-----------------|
G|-6-6-6-6-6-6-6-6-|-5-5-5-5-6-6-6-6-|-----------------|-5-5-5-5-6-6-6-6-|
D|-6-6-6-6-6-6-6-6-|-x-x-x-x-x-x-x-x-|-6-6-6-6-6-6-6-6-|-x-x-x-x-x-x-x-x-|
A|-4-4-4-4-4-4-4-4-|-3-3-3-3-4-4-4-4-|-6-6-6-6-6-6-6-6-|-3-3-3-3-4-4-4-4-|
D|-----------------|-----------------|-6-6-6-6-6-6-6-6-|-----------------|

 57                58                59                60
e|-----------------|-----------------|-----------------|-----------------|
b|-----------------|-----------------|-----------------|-----------------|
G|-----------------|-----------------|-----------------|----------------o|
D|-4-4-4-4-4-4-4-4-|-4-4-4-4-4-4-4-4-|-4-4-4-4-4-4-4-4-|-4-4-4-4-4-4-4-4o|
A|-4-4-4-4-4-4-4-4-|-4-4-4-4-4-4-4-4-|-4-4-4-4-4-4-4-4-|-4-4-4-4-4-4-4-4-|
D|-4-4-4-4-4-4-4-4-|-4-4-4-4-4-4-4-4-|-4-4-4-4-4-4-4-4-|-4-4-4-4-4-4-4-4-|
 |                                                                       |
 |                                                                       |
e|-----------------|-----------------|-----------------|-----------------|
b|-----------------|-----------------|-----------------|-----------------|
G|-----------------|-5-5-5-5-6-6-6-6-|-6-6-6-6-6-6-6-6-|-5-5-5-5-6-6-6-6-|
D|-4-4-4-4-4-4-4-4-|-x-x-x-x-x-x-x-x-|-x-x-x-x-x-x-x-x-|-x-x-x-x-x-x-x-x-|
A|-4-4-4-4-4-4-4-4-|-3-3-3-3-4-4-4-4-|-4-4-4-4-4-4-4-4-|-3-3-3-3-4-4-4-4-|
D|-4-4-4-4-4-4-4-4-|-----------------|-----------------|-----------------|

   And she walks just like I remember, like something's on her mind.
   And she says that she would still remember when everything, everything
   was fine.


Interlude (2:00-2:24):

 61                62                63                64
e|-----------------|-----------------|-----------------|-----------------|
b|-----------------|-----------------|-----------------|-----------------|
G|o----------------|-----------------|-----------------|----------------o|
D|o8-8-8-8-8-8-8-8-|-8-8-8-8-8-8-8-8-|-4-4-4-4-4-4-4-4-|-4-4-4-4-4-4-4-4o|
A|-8-8-8-8-8-8-8-8-|-8-8-8-8-8-8-8-8-|-4-4-4-4-4-4-4-4-|-4-4-4-4-4-4-4-4-|
D|-8-8-8-8-8-8-8-8-|-8-8-8-8-8-8-8-8-|-4-4-4-4-4-4-4-4-|-4-4-4-4-4-4-4-4-|
 |                                                                       |
 |                                                                       |
e|-----------------|-----------------|-----------------|-----------------|
b|-----------------|-----------------|-----------------|-----------------|
G|-----------------|-----------------|-----------------|-----------------|
D|-8-8-8-8-8-8-8-8-|-8-8-8-8-8-8-8-8-|-4-4-4-4-4-4-4-4-|-4-4-4-4-4-4-4-4-|
A|-8-8-8-8-8-8-8-8-|-8-8-8-8-8-8-8-8-|-4-4-4-4-4-4-4-4-|-4-4-4-4-4-4-4-4-|
D|-8-8-8-8-8-8-8-8-|-8-8-8-8-8-8-8-8-|-4-4-4-4-4-4-4-4-|-4-4-4-4-4-4-4-4-|

                                      ___________________________________
                                     |1.
 65                66                67                68
e|-----------------|-----------------|-----------------|-----------------|
b|-----------------|-----------------|-----------------|-----------------|
G|o----------------|-----------------|-----------------|----------------o|
D|o6-6-6-6-6-6-6-6-|-6-6-6-6-6-6-6-6-|-4-4-4-4-4-4-4-4-|-4-4-4-4-4-4-4-4o|
A|-6-6-6-6-6-6-6-6-|-6-6-6-6-6-6-6-6-|-4-4-4-4-4-4-4-4-|-4-4-4-4-4-4-4-4-|
D|-6-6-6-6-6-6-6-6-|-6-6-6-6-6-6-6-6-|-4-4-4-4-4-4-4-4-|-4-4-4-4-4-4-4-4-|
 |                                                                       |
 |                                                                       |
e|-----------------|-----------------|-----------------|-----------------|
b|-----------------|-----------------|-----------------|-----------------|
G|-----------------|-----------------|-----------------|-----------------|
D|-6-6-6-6-6-6-6-6-|-8-8-8-8-6-6-6-6-|-4-4-4-4-4-4-4-4-|-4-4-4-4-4-4-4-4-|
A|-6-6-6-6-6-6-6-6-|-6-6-6-6-6-6-6-6-|-4-4-4-4-4-4-4-4-|-4-4-4-4-4-4-4-4-|
D|-6-6-6-6-6-6-6-6-|-6-6-6-6-6-6-6-6-|-4-4-4-4-4-4-4-4-|-4-4-4-4-4-4-4-4-|

  ___________________________________
 |2.
                  1/2
 69                70              
e|-----------------|-----------------|
b|-----------------|-----------------|
G|-----------------|-----------------|
D|-4---4---4---4---|-4---4-----------|
A|-4---4---4---4---|-4---4-----------|
D|-4---4---4---4---|-4---4-----------|
 |                                   |
 |                                   |
e|-----------------|-----------------|
b|-----------------|-----------------|
G|-----------------|-----------------|
D|-4---4---4---4---|-4---4-----------|
A|-4---4---4---4---|-4---4-----------|
D|-4---4---4---4---|-4---4-----------|

   You always knew it was the right way, the right way to make a point in
   everything.
   I'm going to make up for lost time. I'm going to make up for this. 
   I gotta wake up and rewind.


Break (2:25-2:37):

4/4
 71                72                73                74
e|-----------------|-----------------|-----------------|-----------------|
b|-----------------|-----------------|-----------------|-----------------|
G|-6---------------|(6)--------------|(6)--------------|(6)--------------|
D|-6---------------|(6)--------------|(6)--------------|(6)--------------|
A|-4---------------|(4)--------------|(4)--------------|(4)--------------|
D|-----------------|-----------------|-----------------|-----------------|
 |                                                                       |
 |                                                                       |
e|---------4-------|---------4-------|---------4-------|---------4-------|
b|-----------4---4-|-----------4---4-|-----------4---4-|-----------4---4-|
G|---6---6---------|---6---6---------|---6---6---------|---6---6---------|
D|-6---6-------6---|-6---6-------6---|-6---6-------6---|-6---6-------6---|
A|-----------------|-----------------|-----------------|-----------------|
D|-----------------|-----------------|-----------------|-----------------|

 75                76                77                79
e|-----------------|-----------------|-----------------|-----------------|
b|-----------------|-----------------|-----------------|-----------------|
G|(6)--------------|(6)--------------|(6)--------------|(6)--------------|
D|(6)--------------|(6)--------------|(6)--------------|(6)-----------12\|
A|(4)--------------|(4)--------------|(4)--------------|(4)-----------12\|
D|-----------------|-----------------|-----------------|--------------12\|
 |                                                                       |
 |                                                                       |
e|---------4-------|---------4-------|---------4-------|---------4-------|
b|-----------4---4-|-----------4---4-|-----------4---4-|-----------4---4-|
G|---6---6---------|---6---6---------|---6---6---------|---6---6---------|
D|-6---6-------6---|-6---6-------6---|-6---6-------6---|-6---6-------6---|
A|-----------------|-----------------|-----------------|-----------------|
D|-----------------|-----------------|-----------------|-----------------|

   And she walks just like I remember. Something's on her mind.


Outro (2:37-3:05):

 80                81                82                83
e|-----------------|-----------------|-----------------|-----------------|
b|-----------------|-----------------|-----------------|-----------------|
G|o6-6-6-6-6-6-6-6-|-6-6-6-6-6-6-6-6-|-----------------|-----------------|
D|o6-6-6-6-6-6-6-6-|-6-6-6-6-6-6-6-6-|-6-6-6-6-6-6-6-6-|-6-6-6-6-6-6-6-6-|
A|-4-4-4-4-4-4-4-4-|-4-4-4-4-4-4-4-4-|-6-6-6-6-6-6-6-6-|-6-6-6-6-6-6-6-6-|
D|-----------------|-----------------|-6-6-6-6-6-6-6-6-|-6-6-6-6-6-6-6-6-|
 |                                                                       |
 |                                                                       |
e|-----------------|-----------------|-----------------|-----------------|
b|-----------------|-----------------|-----------------|-----------------|
G|-6-6-6-6-6-6-6-6-|-5-5-5-5-6-6-6-6-|-----------------|-5-5-5-5-6-6-6-6-|
D|-6-6-6-6-6-6-6-6-|-x-x-x-x-x-x-x-x-|-6-6-6-6-6-6-6-6-|-x-x-x-x-x-x-x-x-|
A|-4-4-4-4-4-4-4-4-|-3-3-3-3-4-4-4-4-|-6-6-6-6-6-6-6-6-|-3-3-3-3-4-4-4-4-|
D|-----------------|-----------------|-6-6-6-6-6-6-6-6-|-----------------|

 84                85                86                87
e|-----------------|-----------------|-----------------|-----------------|
b|-----------------|-----------------|-----------------|-----------------|
G|-----------------|-----------------|-----------------|----------------o|
D|-4-4-4-4-4-4-4-4-|-4-4-4-4-4-4-4-4-|-4-4-4-4-4-4-4-4-|-4-4-4-4-4-4-4-4o|
A|-4-4-4-4-4-4-4-4-|-4-4-4-4-4-4-4-4-|-4-4-4-4-4-4-4-4-|-4-4-4-4-4-4-4-4-|
D|-4-4-4-4-4-4-4-4-|-4-4-4-4-4-4-4-4-|-4-4-4-4-4-4-4-4-|-4-4-4-4-4-4-4-4-|
 |                                                                       |
 |                                                                       |
e|-----------------|-----------------|-----------------|-----------------|
b|-----------------|-----------------|-----------------|-----------------|
G|-----------------|-5-5-5-5-6-6-6-6-|-6-6-6-6-6-6-6-6-|-5-5-5-5-6-6-6-6-|
D|-4-4-4-4-4-4-4-4-|-x-x-x-x-x-x-x-x-|-x-x-x-x-x-x-x-x-|-x-x-x-x-x-x-x-x-|
A|-4-4-4-4-4-4-4-4-|-3-3-3-3-4-4-4-4-|-4-4-4-4-4-4-4-4-|-3-3-3-3-4-4-4-4-|
D|-4-4-4-4-4-4-4-4-|-----------------|-----------------|-----------------|

                                    1/4
 88                89                90
e|-----------------|-----------------|-----------------|
b|-----------------|-----------------|-----------------|
G|-6---6---6---6---|-6---6-----------|-----------------|
D|-6---6---6---6---|-6---6----%------|--------%--------|
A|-4---4---4---4---|-4---4-----------|-----------------|
D|-----------------|-----------------|-----------------|
 |                                                     |
 |                                                     |
e|-----------------|-----------------|-----------------|
b|-----------------|-----------------|-----------------|
G|-6---6---6---6---|-6---6-----------|-----------------|
D|-6---6---6---6---|-6---6----%------|--------%--------|
A|-4---4---4---4---|-4---4-----------|-----------------|
D|-----------------|-----------------|-----------------|

   And she walks just like I remember, like something's on her mind.
   And she says that she would still remember when everything, everything
   was fine.

Добавлено: 21.03.2012
Другие материалы по этой песне:
  • Аккорды и текст

Страница создана 21.03.2012
http://primanota.ru/bleed-the-dream/just-like-i-remember-chords.htm
Привет, Гость.
Предлагаем пройти революционный курс по гитаре.
Подарок от PrimaNota.Ru, забирай!