PrimaNota.ru - самый крупный в мире бесплатный архив песенных текстов, аккордов, табулатур и нот


Bleed The Dream - Broken Wings - текст песни, таба, драм-таба, видео

Регистрация Запомнить меня
Войти через:  Facebook Google Twitter Vk Yandex Mail.ru

Bleed The Dream - Broken Wings - текст песни, таба, драм-таба, видео

Печатать
Просмотров: 226
-------------------------------------------------------------------------------
                             "Broken Wings"
                                   by
                      B L E E D   T H E   D R E A M
-------------------------------------------------------------------------------
Tabbed by:Gano "Jimmesey" Perez Jr. for my beautiful loving wife Michelle Perez
and our son KADE Austin Perez!
**Email: gano22perez@yahoo.com   $$$ Please, Please , Please email comments
corrections, and congradulations to the above email, this is a "tab in progress"
and I would like it to be the only correct version and not have like 8 versions
of the same thing taking up space on the one and only tab site, the "ULTIMATE"
Ultimate guitar dot com.

Tuning: Standard rich Acoustic in a box room!
Guitarist #1
Intro
e|-------------------------------------------------------------------------|
B|-----------------------------4-----------6-------------------------------|
G|--------5----------5---------------5---------5---------------------------|
D|-----5----5-------------5------------------------------------------------|
A|-3------------3----------------------------------------------------------|
E|-------------------------------------------------------------------------|
Basically CHORD # 1 hand-picked kinda like this below!
e|-------------------------------------------------------------------------|
B|-----------4------------------------4------------------------------------|
G|-------5-------5---------5----------------5------------------------------|
D|-------------------------------------------------------------------------|
A|--3-----------------3----------3-----------------------------------------|
E|-------------------------------------------------------------------------|
Guitarist # 2 (use these solo-like progressions when you hear them)
       (x1)                  (x2)               (x3)
e|------------------|-------------------|---------------------|
B|---4-----6----4---|-4-/-6-/-8-/-9-\-8-|-13-\-11-\-9-\-8-----|
G|------5-----5-----|-------------------|---------------------|
D|------------------|-------------------|---------------------|
A|------------------|-3-/-5-/-6-/-8-\-6-|-11-\-10-\-8-\-6-----|
E|------------------|-------------------|---------------------|
Strum these chords or improv pick through during CHORUS (Guitarist # 1)

CHORD 1   CHORD 2
e|--3-------4-------------------------------------------------------|
B|--4-------4-------------------------------------------------------|
G|--5-------5-------------------------------------------------------|
D|--5-------6-------------------------------------------------------|
A|--3-------6-------------------------------------------------------|
E|--3-------4-------------------------------------------------------|
END SONG with repeating chorus......

***TAB for BASS on low (fat) E string        Strum the power chords below.
e|--------------------------------------------------------------------------|
B|--------------------------------------------------------------------------|
G|--------------------------------------------------------------------------|
D|--3-3-3-3---------------------------------6-6-6-6-6-----------------------|
A|--3-3-3-3---(play a few times)-then play--6-6-6-6-6-----------------------|
E|--1-1-1-1---------------------------------4-4-4-4-4-----------------------|END
----------------------------------------------------------------------------|
 Below here is the Alternative Slides for the "no one is listening.."part.
|------------------------------------------------------------|
|------------------------------------------------------------|
|-------8---10--12--13--12-----------------------------------|
|-------*---*----*---*---*-----------------------------------|
|-------6---8---10--11--10-----------------------------------|
|------------------------------------------------------------|

AS ALWAYS,
Thanks to all the music lovers and players out there for sending feedback!
| /  slide up                                        gano j. perez jr.
| \  slide down
| h  hammer-on
| p  pull-off
| ~  vibrato
| +  harmonic
| x  Mute note
===============================================================================
Добавлено: 31.03.2012
Другие материалы по этой песне:
  • Аккорды и текст

Страница создана 16.03.2012
http://primanota.ru/bleed-the-dream/broken-wings-chords.htm
Привет, Гость.
Предлагаем пройти революционный курс по гитаре.
Подарок от PrimaNota.Ru, забирай!