PrimaNota.ru - самый крупный в мире бесплатный архив песенных текстов, аккордов, табулатур и нот


Bleached - Wednesday Night Melody - аккорды и текст, видео

Регистрация Запомнить меня
Войти через:  Facebook Google Twitter Vk Yandex Mail.ru

Bleached - Wednesday Night Melody - аккорды и текст, видео

Печатать
Просмотров: 54
Уроки эстрадного вокала в Санкт-Петербурге
Wednesday Night Melody
Bleached
This song uses power chords throughout the song

Intro: G#, D#, C, C    x4

That small riff in the intro goes like this:

e|----------
B|--4h6-----
G|------5---
D|----------
A|----------
E|----------

A#, F#, D#, G#    x2

Pause

G#            D#
Find yourself some time 
C
Leave the past behind 
G#          D#
Future is a lonely ride
C 
So tell yourself you gotta try

G#                D#
Choices that were made
      C
Well I think now you better rearrange 
G#                 D#
Give yourself some peace of mind 
        C
Cuz the sun will shine and the shadows don't mind


A#, C#, G#, G#     x2

F#          G#
Come on boy dry your eyes 
     C#                  B
It's good to feel just a little alive 
F#                   G#
Drag a needle on the groove today 
    C#              B
And waste away yeah waste away

F#          G#
Come on boy dry your eyes 
     C#                  B
It's good to feel just a little alive 
F#                   G#
Drag a needle on the groove today 
    C#                 B
And waste away... just waste away...


G# then pause

G#                      D#
You've been running for days 
      C
And I hope you find your way
G#           D#
Creatures of mistakes 
  C
Rewind the time, make it ok 
G#               D#
But you can't do that
       C   
No, we can't do that, 
G#           D#
You can't do that, 
       C
No, We can't do that


F#          G#
Come on boy dry your eyes 
     C#                  B
It's good to feel just a little alive 
F#                   G#
Drag a needle on the groove today 
    C#              B
And waste away yeah waste away

F#          G#
Come on boy dry your eyes 
     C#                  B
It's good to feel just a little alive 
F#                   G#
Drag a needle on the groove today 
    C#               B
And waste away... just waste away...

SOLO

   A#                C#                D#                        G#
e|-6-6-6-6-6-6-6-6-|-9-9-9-9-9-9-9-9-|-11-11-11-11-11-11-11-11-|-4-4-4-4-4-4-4-4-
B|-----------------|-----------------|-------------------------|------------------
G|-----------------|-----------------|-------------------------|------------------
D|-----------------|-----------------|-------------------------|------------------
A|-----------------|-----------------|-------------------------|------------------
E|-----------------|-----------------|-------------------------|------------------

   A#                C#                D#                        G#
e|-6-6-6-6-6-6-6-6-|-9-9-9-9-9-9-9-9-|-11-11-11-11-11-11-11-11-|-4-4-4-4-4-4-4-4-
B|-----------------|-----------------|-------------------------|------------------
G|-----------------|-----------------|-------------------------|------------------
D|-----------------|-----------------|-------------------------|------------------
A|-----------------|-----------------|-------------------------|------------------
E|-----------------|-----------------|-------------------------|------------------

   A#               C#                D#                        G#
   Oh     hello     old  friend  It's   time    again    you    come around
e|-6-6-6-6-6-6-6-6-|-9-9-9-9-9-9-9-9-|-11-11-11-11-11-11-11-11-|-4-4-4-4-4-4-4-4-
B|-----------------|-----------------|-------------------------|------------------
G|-----------------|-----------------|-------------------------|------------------
D|-----------------|-----------------|-------------------------|------------------
A|-----------------|-----------------|-------------------------|------------------
E|-----------------|-----------------|-------------------------|------------------

   A#               C#                D#                        G#
   Oh     hello     old  friend  It's   time    again    you    come around
e|-6-6-6-6-6-6-6-6-|-9-9-9-9-9-9-9-9-|-11-11-11-11-11-11-11-11-|-16-16-16-16-16-16-16-16-
B|-----------------|-----------------|-------------------------|-------------------------
G|-----------------|-----------------|-------------------------|-------------------------
D|-----------------|-----------------|-------------------------|-------------------------
A|-----------------|-----------------|-------------------------|-------------------------
E|-----------------|-----------------|-------------------------|-------------------------


F#      G#
Soak in the rays 
C#       B       F#
From the grave
    G#
The shadows don't mind 
        C#              B
On this Wednesday Night Melody

F#          G#
Come on boy dry your eyes 
     C#                  B
It's good to feel just a little alive 
F#                   G#
Drag a needle on the groove today 
    C#               B
And waste away... just waste away...

F#          G#
Come on boy dry your eyes 
     C#                  B
It's good to feel just a little alive 
F#                   G#
Drag a needle on the groove today 
    C#               B
And waste away... just waste away...

G#, D#, C, C

e|----------
B|--4h6-----
G|------5---
D|----------
A|----------
E|----------

G#, D#, C
Добавлено: 21.09.2017
Другие материалы по этой песне:
  • Аккорды и текст

Страница создана 21.09.2017
http://primanota.ru/bleached/wednesday-night-melody-chords.htm
Привет, Гость.
Предлагаем пройти революционный курс по гитаре.
Подарок от PrimaNota.Ru, забирай!