PrimaNota.ru - самый крупный в мире бесплатный архив песенных текстов, аккордов, табулатур и нот


Bleached - Think Of You - таба, видео

Регистрация Запомнить меня
Войти через:  Facebook Google Twitter Vk Yandex Mail.ru

Bleached - Think Of You - таба, видео

Печатать
Просмотров: 109
Bleached, Think Of You
From the Carter 7" (2011).

Tabbed by Isaac Murguia, January 2013.
YouTube: Goadiroth

===INTRO===

LEAD (Jessica):
e|-----------------------------0-0-0--|
B|-----------------------------2-2-2--|
G|-9-----9\--6-----6-----------2-2-2--|
D|-9-----9\--6-----6---6----6--2-2-2--|
A|-7-----7\--4-----4---6----6--0-0-0--|
E|---------------------4----4---------|

RHYTHM (Jennifer):
e|------------------------------------|
B|------------------------------------|
G|------------------------------------|
D|-14----14\-10----10\-6----6--7-7-7--|
A|-14----14\-10----10\-6----6--7-7-7--|
E|-12----12\-9-----9-\-4----4--5-5-5--|


===VERSE=== [x8] *don't repeat "E" on last repetition*

LEAD:                                "E"
e|-------------------------------|-0-00-00-|
B|-------------------------------|-2-22-22-|
G|-9-99-99--6-66-66--5---5-5-----|-2-22-22-|
D|-9-99-99--6-66-66--6-6-----6-0-|-2-22-22-|
A|-7-77-77--4-44-44--6-----------|-0-00-00-|
E|-------------------4-----------|---------|

RHYTHM:                                    "E"
e|-------------------------------------|---------|
B|-------------------------------------|---------|
G|-------------------------------------|---------|
D|-14-1414-1414--10-1010-1010--6-66-66-|-7-77-77-|
A|-14-1414-1414--10-1010-1010--6-66-66-|-7-77-77-|
E|-12-1212-1212--9--9-9--9-9---4-44-44-|-5-55-55-|


===RIFF A=== (just listen to the song if this part looks confusing)

LEAD:   [x2]
e|-0-00-0000-00-000-|-0-00-|-------------------|
B|-2-22-2222-22-222-|-2-22-|-------------------|
G|-2-22-2222-22-222-|-2-22-|-------------------|
D|-2-22-2222-22-222-|-2-22-|-2-22-222-2-22-222-|
A|-0-00-0000-00-000-|-0-00-|-2-22-222-2-22-222-|
E|------------------|------|-0-00-000-0-00-000-|

RHYTHM: [x2]
e|------------------|------|-------------------|
B|------------------|------|-------------------|
G|------------------|------|-------------------|
D|-7-77-7777-77-777-|-7-77-|-2-22-222-2-22-222-|
A|-7-77-7777-77-777-|-7-77-|-2-22-222-2-22-222-|
E|-5-55-5555-55-555-|-5-55-|-0-00-000-0-00-000-|


GUITAR LICK:
e|-------------------------------|-------------------|
B|-------------------------------|-----------9-9-7-5-|
G|-------------------------------|----8--8-8---------|
D|-------------------------------|-/9---9-9----------|
A|-------------------------------|-------------------|
E|-9-9999999-7-4-2-4-4444444-2-0-|-------------------|


CHORUS (continued from Guitar Lick):
e|----------------------------------------------------|
B|----------------------------------------------------|
G|----------------------------------------------------|
D|-9-99-9999-99-999-7-77-7777-77-777-9-99-9999-99-999-|
A|-9-99-9999-99-999-7-77-7777-77-777-9-99-9999-99-999-|
E|-7-77-7777-77-777-5-55-5555-55-555-7-77-7777-77-777-|

       [x2]
e|----------------|------------------------------|
B|----------------|------------------------------|
G|-9-99-999-------|-9-99-999---------------------|
D|-9-99-999-9-9-9-|-9-99-999-9-9-9--9-9-9--9-9-9-|
A|-7-77-777-9-9-9-|-7-77-777-9-9-9--9-9-9--9-9-9-|
E|----------7-7-7-|----------7-7-7--7-7-7--7-7-7-|

Repeat VERSE [x6]
Repeat RIFF A

GUITAR SOLO:
e|-------------------------------|-----------------|
B|-------------------------------|-----------9-9-7-|
G|-------------------------------|----8--8-8-------|
D|-------------------------------|-/9---9-9--------|
A|-------------------------------|-----------------|
E|-9-9999999-7-4-2-4-4444444-2-0-|-----------------|

e|-------------0--------------------|------------------------|
B|----9--9-9---0--------------------|------------------------|
G|-/9---9-9--7-4------9---9--9------|------------------------|
D|----------------/11---11-11--9-11-|-11-11111111-111111-9-6-|
A|----------------------------------|------------------------|
E|----------------------------------|------------------------|

e|-------------------|
B|-----------9-9-7-5-|
G|----8--8-8---------|
D|-/9---9-9----------|
A|-------------------|
E|-------------------|

Repeat CHORUS

Ending CHORD:
e|----------------|
B|----------------|
G|-9--------------|
D|-9--------------|
A|-7--------------|
E|----------------|
Добавлено: 02.10.2013
Другие материалы по этой песне:
  • Аккорды и текст

Страница создана 02.10.2013
http://primanota.ru/bleached/think-of-you-chords.htm
Привет, Гость.
Предлагаем пройти революционный курс по гитаре.
Подарок от PrimaNota.Ru, забирай!