PrimaNota.ru - самый крупный в мире бесплатный архив песенных текстов, аккордов, табулатур и нот


Bleached - Love Spells - таба, видео

Регистрация Запомнить меня
Войти через:  Facebook Google Twitter Vk Yandex Mail.ru

Bleached - Love Spells - таба, видео

Печатать
Просмотров: 62
Tuning: Standard
Intro:
e|--------------------------------------------|
B|--------------------------------------------|
G|--------------------------------------------|
D|--9-6----5-4----9--x-x-6--x-x-5--x-x-4--x-x-|
A|--9-6----5-4----9--x-x-6--x-x-5--x-x-4--x-x-|
E|--7-4----3-2----7--x-x-4--x-x-3--x-x-2--x-x-|
                    
Verse:
e|---------------------------------------|
B|---------------------------------------|
G|---------------------------------------|
D|--9--x-x-6--x-x-5--x-x-4--x-x----------|
A|--9--x-x-6--x-x-5--x-x-4--x-x----------|
E|--7--x-x-4--x-x-3--x-x-2--x-x----------|

Chorus: (x4)
e|-----------------------------------------------------|
B|-----------------------------------------------------|
G|--9---9-9---9-9-9-8---8-8---8-8-8-6---6-6---6-6-6-8---8-8---8-8-8-|
D|--9---9-9---9-9-9-9---9-9---9-9-9-7---7-7---7-7-7-9---9-9---9-9-9-|
A|--7---7-7---7-7-7-9---9-9---9-9-9-7---7-7---7-7-7-9---9-9---9-9-9-|
E|------------------7---7-7---7-7-7-5---5-5---5-5-5-7---7-7---7-7-7-|

Bridge:
e|----------------------------------------------------------------------------| Part 1
B|----------------------------------------------------------------------------| 
G|--9-9-9-9-9-9-9-9-9-9-9-9-9-9-9-9-------------------------------------------|
D|--9-9-9-9-9-9-9-9-9-9-9-9-9-9-9-9---5-5-5-5-5-5-5-5-10-10-10-10-10-10-10-10-|
A|--7-7-7-7-7-7-7-7-7-7-7-7-7-7-7-7---5-5-5-5-5-5-5-5-10-10-10-10-10-10-10-10-|
E|------------------------------------3-3-3-3-3-3-3-3-8--8--8--8--8--8--8--8--|

e|----------------------------------------------------------------------------| Part 2
B|----------------------------------------------------------------------------|
G|----------------------------------------------------------------------------|
D|-----5-5-5-5-5-5-5-5-10-9-8----9----6----5-5-5-5-5-5-5-4-4-4-4-4-4-4-4------|
A|-----5-5-5-5-5-5-5-5-10-9-8----9----6----5-5-5-5-5-5-5-4-4-4-4-4-4-4-4------|
E|-----3-3-3-3-3-3-3-3-8--7-6----7----4----3-3-3-3-3-3-3-2-2-2-2-2-4-2-2------|

Verse

Chorus

then Bridge

Part 1 same

Part 2

e|-------------------------------------------------------------------| 
B|-------------------------------------------------------------------|
G|-------------------------------------------------------------------|
D|-----5-5-5-5-5-5-5-5-10-9-8-8-8-8-8-8-8-8-/9-9-9-9-9-9-9-9---------|
A|-----5-5-5-5-5-5-5-5-10-9-8-8-8-8-8-8-8-8-/9-9-9-9-9-9-9-9---------|
E|-----3-3-3-3-3-3-3-3-8--7-6-6-6-6-6-6-6-6-/7-7-7-7-7-7-7-7---------|

Chorus


Lead Guitar Chorus:
e|--------7---------------7---------------7----------------|
B|------9-----9---------7-----7---------5-----5------------|
G|--9-----------9---8-----------8---6-----------6----------|
D|---------------------------------------------------------|
A|---------------------------------------------------------|
E|---------------------------------------------------------|


************************************

| /   slide up
| \   slide down
| h   hammer-on
| p   pull-off
| ~   vibrato
| +   harmonic
| x   Mute note
| b   Bend
| pb  Pre-bend
| br  Bend release
| pbr Pre-bend release
| brb Bend release bend

************************************
Добавлено: 12.04.2016
Другие материалы по этой песне:
  • Аккорды и текст

Страница создана 12.04.2016
http://primanota.ru/bleached/love-spells-chords.htm
Привет, Гость.
Предлагаем пройти революционный курс по гитаре.
Подарок от PrimaNota.Ru, забирай!