PrimaNota.ru - самый крупный в мире бесплатный архив песенных текстов, аккордов, табулатур и нот


Bleached - Electric Chair - таба, видео

Регистрация Запомнить меня
Войти через:  Facebook Google Twitter Vk Yandex Mail.ru

Bleached - Electric Chair - таба, видео

Печатать
Просмотров: 161
Уроки эстрадного вокала в Санкт-Петербурге
-------------------------------------------------------------------------------
                             ELECTRIC CHAIR - Bleached
-------------------------------------------------------------------------------
Tabbed by: Fuzzy Slippers
Email: nizibian@gmail.com
Band's websites: http://hellobleached.tumblr.com/  +  http://www.myspace.com/hellobleached

Tuning: standard (EADGBe)

Intro/Chorus
e|---------------------------------------------------------------------------|
B|---------------------------------------------------------------------------|
G|--4-444444--9--9-9-9-9-9-9-6-666666-6-666666-------------------------------|
D|--5-555555-10-101010101010-7-777777-7-777777-------------------------------|
A|--5-555555-10-101010101010-7-777777-7-777777-------------------------------|
E|--3-333333--8--8-8-8-8-8-8-5-555555-5-555555-------------------------------|

Accompanying bass riff
e|---------------------------------------------------------------------------|
B|---------------------------------------------------------------------------|
G|---------------------------------------------------------------------------|
D|---------------------------------------------------------------------------|
A|---------------------------------------------------------------------------|
E|------------------------------------5--5-7-5-------------------------------|


Bridge
e|---------------------------------------------------------------------------|
B|---------------------------------------------------------------------------|
G|--4-444444-4-444444--9--9-9-9-9-9-9--9--9-9-9-9-9-9------------------------|
D|--5-555555-5-555555-10-101010101010-10-101010101010------------------------|
A|--5-555555-5-555555-10-101010101010-10-101010101010------------------------|
E|--3-333333-3-333333--8--8-8-8-8-8-8--8--8-8-8-8-8-8------------------------|


Bridge II
e|---------------------------------------------------------------------------|
B|---------------------------------------------------------------------------|
G|---------------------------------------------------------------------------|
D|--9-999999-9-999999--------------------------------------------------------|
A|--9-999999-9-999999--------------------------------------------------------|
E|--7-777777-7-777777--------------------------------------------------------|


Short interlude
e|---------------------------------------------------------------------------|
B|---------------------------------------------------------------------------|
G|--4-444444-4-444444--------------------------------------------------------|
D|--5-555555-5-555555--------------------------------------------------------|
A|--5-555555-5-555555--------------------------------------------------------|
E|--3-333333-3-333333--------------------------------------------------------|


Outro
e|---------------------------------------------------------------------------|
B|---------------------------------------------------------------------------|
G|-4--------9---------6--------------4---------------------------------------|
D|-5-------10---------7--------------5---------------------------------------|
A|-5-------10---------7--------------5---------------------------------------|
E|-3--------8---------5--------------3---------------------------------------|


Intro/Chorus x2
Intro/Chorus (with bass riff) x5
Bridge x3
Bridge II x1
Intro/Chorus (with bass riff) x3
Bridge x3
Bridge II x2
Intro/Chorus (with bass riff) x4
Short interlude x1
Intro/Chorus (with bass riff) x12
Outro x1

************************************

| /   slide up
| \   slide down
| h   hammer-on
| p   pull-off
| ~   vibrato
| +   harmonic
| x   Mute note
| b   Bend
| pb  Pre-bend
| br  Bend release
| pbr Pre-bend release
| brb Bend release bend

************************************
Добавлено: 29.07.2013
Другие материалы по этой песне:
  • Аккорды и текст

Страница создана 29.07.2013
http://primanota.ru/bleached/electric-chair-chords.htm
Привет, Гость.
Предлагаем пройти революционный курс по гитаре.
Подарок от PrimaNota.Ru, забирай!