PrimaNota.ru - самый крупный в мире бесплатный архив песенных текстов, аккордов, табулатур и нот


Bleach - Warp Factor Five - текст песни, таба, видео

Регистрация Запомнить меня
Войти через:  Facebook Google Twitter Vk Yandex Mail.ru

Bleach - Warp Factor Five - текст песни, таба, видео

Печатать
Просмотров: 139
		   Artist: Bleach
Album: Static
Song: "Warp Factor Five"
Tabbed by: Ivan R. Doyle

The intro to this song is really cool!

Also, note the spacing of the chords.

D--9-9-5-5-5-5-5-5-10-10-3-3-3-3-3-3-
A--9-9-5-5-5-5-5-5-10-10-3-3-3-3-3-3-
E--7-7-3-3-3-3-3-3--8--8-1-1-1-1-1-1-

Hold on, hold on, it's a heavy 

D--9-9-5-5-5-5-5-5-10-10-3-3-3-3-3-3-
A--9-9-5-5-5-5-5-5-10-10-3-3-3-3-3-3-
E--7-7-3-3-3-3-3-3--8--8-1-1-1-1-1-1-

Scene Warp factor five with me 

D--9-9-5-5-5-5-5-5-10-10-3-3-3-3-3-3-
A--9-9-5-5-5-5-5-5-10-10-3-3-3-3-3-3-
E--7-7-3-3-3-3-3-3--8--8-1-1-1-1-1-1-

Come on, along won't you come with

D--9-9-5-5-5-5-5-5-10-10-3-3-3-3-3-3-
A--9-9-5-5-5-5-5-5-10-10-3-3-3-3-3-3-
E--7-7-3-3-3-3-3-3--8--8-1-1-1-1-1-1-

Me. Warp factor five you see

D--7-7-7-7-7-7-7-7-10-10-10-10---10-10-1010-
A--7-7-7-7-7-7-7-7-10-10-10-10---10-10-1010-
E--5-5-5-5-5-5-5-5-8--8--8--8----8--8—-8-8—-

This world is buggin' out of control 

D--7--7-7-7-7-7-7-10-10-10-10---10-10-10-
A--7--7-7-7-7-7-7-10-10-10-10---10-10-10-
E--5--5-5-5-5-5-5-8--8--8--8----8--8—-8—

And there's one...... Godly soul

D--7---7-7-7-7-7-7-10-10-10-10---10-10-1010-
A--7---7-7-7-7-7-7-10-10-10-10---10-10-1010-
E--5-5-5-5-5-5-5-5-8--8--8--8----8--8—-8-8--

Outta' sight to your to your cosmic home
D--8---8---8---8---7---7---7-7-7-7-
A--8---8---8---8---7---7---7-7-7-7-
E--6-6-6-6-6-6-6-6-5-5-5-5-5-5-5-5-
To your cosmic home, your cosmic home

 
CHORUS
D-10--10----10--10----10-------10--10--------10-------
A—10--10-10-10--10-10-10-10-10-10--10--10-10-10-10-10-
E--8---8--8--8---8--8--8--8--8--8---8---8--8—-8--8—-8-

D--8---8---8---8---
A--8---8---8---8--- The rhythm follows the lyrics.
E--6-6-6-6-6-6-6-6-

(play 2 times)
Verse 2 is same as 1, except one thing.

D--9-5-5-5-5-5-5-5-10-3-3-3-3-3-3-3-3-
A--9-5-5-5-5-5-5-5-10-3-3-3-3-3-3-3-3-
E--7-3-3-3-3-3-3-3--8-1-1-1-1-1-1-1-1-

(play 5 times)
Then play the chorus 2 times.
Then there's a bridge. I'm not sure about the rhythm or one of the notes, but it sounds fine if you ad lib the rhythm. Also, I'm not sure if it's just distorted bass or guitar too. Oh well. I only put the notes.

E--1----3----?----8--

E--1----3----6-
Then repeat the chorus 3 times and that's it!

 
Hopefully I'll figure out some more soon. This new album is great! (plug!) Also, I submit my songs on friends' computers, but I'm getting the net and e-mail soon if you have any corrections for me. Constructive criticism needed. God bless!
> >Ivan R. Doyle >      
Добавлено: 11.07.2013
Другие материалы по этой песне:
  • Аккорды и текст

Страница создана 04.05.2012
http://primanota.ru/bleach/warp-factor-five-chords.htm
Привет, Гость.
Предлагаем пройти революционный курс по гитаре.
Подарок от PrimaNota.Ru, забирай!