PrimaNota.ru - самый крупный в мире бесплатный архив песенных текстов, аккордов, табулатур и нот


Bleach - Child Of Sod - аккорды и текст, таба, бас-таба, видео

Регистрация Запомнить меня
Войти через:  Facebook Google Twitter Vk Yandex Mail.ru

Bleach - Child Of Sod - аккорды и текст, таба, бас-таба, видео

Печатать
Просмотров: 164
Child Of Sod
Bleach
		   ------------------------------------------------------
| Child of Sod                                       |
| by: Bleach                                         |
| CD: Space                                          |
| words & music by:  Bleach                          |
| from: ccmoore@hsutx.edu (Cameron Moore)            |
| copyright: (C) 1996 ForeFront Records              |
------------------------------------------------------

LEGEND:
b  = bend
r  = release bend
\  = slide down
() = pitch of bend

POWER CHORDS:
   C5  F5  A5  G5
e-----------------|
B-----------------|
G--5--------------|
D--5---3---7---5--|
A--3---3---7---5--|
E------1---5---3--|

FIG 1               FIG 2            FIG 3
e-----------------| |---------------| |---------------------------|
B-----------------| |---------------| |-----4b------4b------------|
G-----------------| |-5-5--5-5--5-5-| |-5-5-----5-5-----5-5-------|
D-----0-------0---| |-5-5--5-5--5-5-| |-5-5-----5-5-----5-5-3---5-|
A---0-------0---0-| |-3-3--3-3--3-3-| |-3-3-----3-3-----3-3-3---5-|
E-1-----3---------| |---------------| |---------------------1---3-|

FILL 1
e-------------------------|-------------------------|
B-------------------------|-------------------------|
G-------------------------|-------------------------|
D-10-10-10-10-10-10-10-10-|-10-10-10-10-10-10-10\---|
A-------------------------|-------------------------|
E-------------------------|-------------------------|

FILL 2
e----------------|----------------|-----------------|
B----------------|----------------|-----------------|
G----------------|----------------|-----------------|
D----------------|----------------|-----------------|
A-12b(13)r(12)---|-12b(13)r(12)---|-12b(13)r(12)\5--|
E----------------|----------------|-----------------|

FILL 3
e-----------------|-----------------|-----------------|-----------------|
B-1-1-1-1-1-1-1-1-|-1-1-1-1-1-1-----|-1-1-1-1-1-1-1-1-|-3-3-3-1-1-1-3-1-|
G-----------------|-------------0-2-|-----------------|-----------------|
D-----------------|-----------------|-----------------|-----------------|
A-----------------|-----------------|-----------------|-----------------|
E-----------------|-----------------|-----------------|-----------------|

FILL 4
e-----------------|-----------------|-----------------|-----------------|
B-1-1-1-1-1-1-----|-1-1-1-1-1-1-----|-1-1-1-1-1-1-1-1-|-3-3-3-1-1-1-3-1-|
G-------------0-2-|-------------0-2-|-----------------|-----------------|
D-----------------|-----------------|-----------------|-----------------|
A-----------------|-----------------|-----------------|-----------------|
E-----------------|-----------------|-----------------|-----------------|

 >   >   >   >   >   >   >   >   >   >   >   >   >   >   >   >   >   > 
 > 

INTRO & 1st VERSE (0:00):
FIG 1 x 20 (through verse)

i remember the first time i met you.
everything that i heard of you was true.
i was a child of mud, i was a child of sod.
calle me the son of filth, drowne me to life in your blood.

CHORUS (0:41):
FILL 1 THEN POWER CHORDS: 

C5          F5             A5
you are the only one for me,
            G5                 C5
you are the one who set me free.
            F5                  A5
and now i found the love. I need,
            G5             FIG 2
you are the only one for me.


2nd VERSE (1:04):
FIG 1; GTR.2 PLAYS FILL 2 AT "*"

as an infant i find my vision clearing.

i grow closer to you, find you endearing.
                *
you are my maker, you are my food.

and i have tasted and I find that you are good.


CHORUS x 2 (1:36)


CHORUS B (2:16):
FIG 3 x 4

the one for me,
set me free,
the one for me,
set me free.


OUTRO (2:32):
GTR. 1 PLAYS CHORUS x 4
GTR. 2 PLAYS FILL 3 TWICE THEN FILL 4 TWICE

end on C5

 >   >   >   >   >   >   >   >   >   >   >   >   >   >   >   >   >   > 
 > 

Well, that's it.  This is as close as I can get.  I put the time by each
section of the song so you will know when each part comes in.  If you
are
going to perform this song with a band, I guess technically the bend in 
FIG 3 should be performed by GTR. 2.  Oh, well.  If you find anything 
wrong, I am open to corrective criticism.

In GOD We TRUST,
Cameron  > 

     
Добавлено: 11.07.2013
Другие материалы по этой песне:
  • Аккорды и текст

Страница создана 29.02.2012
http://primanota.ru/bleach/child-of-sod-chords.htm
Привет, Гость.
Предлагаем пройти революционный курс по гитаре.
Подарок от PrimaNota.Ru, забирай!