PrimaNota.ru - самый крупный в мире бесплатный архив песенных текстов, аккордов, табулатур и нот


Blaze - Steel - таба, бас-таба, видео

Регистрация Запомнить меня
Войти через:  Facebook Google Twitter Vk Yandex Mail.ru

Blaze - Steel - таба, бас-таба, видео

Печатать
Просмотров: 210
Steel by Wolfsbane
Album - Silicon Messiah

Drop D Tuning

If there is not a gap between two 1s it is because it is an eleven not two 1s played fast.



Intro
e--------------------|
B--------------------|
G--------------------|
D-3-6-1-4--11-13-10--|
A-3-6-1-4--11-13-10--|
D-3-6-1-4--11-13-10--|
       

e--------------------|
B--------------------|
G--------------------|
D--------------------|  Repeated lots
A--------------------|
D-3-3-3-2-3-3-3-2----|

e-----------------------------------------------------------------------|
B-----------------------------------------------------------------------|
G-----------------------------------------------------------------------|
D-3-6---4---11---4-4-11/----3-3-3-6---4---11---4-4-11--4-4-11-----------|
A-3-6---4---11---4-4-11/----3-3-3-6---4---11---4-4-11--4-4-11-----------|
D-3-6---4---11---4-4-11/----3-3-3-6---4---11---4-4-11--4-4-11-11-10-8-4-|

Chorus
e---------------------------|
B---------------------------|
G---------------------------|
D-3-3-3-6---4---11---4-4-11-|
A-3-3-3-6---4---11---4-4-11-|
D-3-3-3-6---4---11---4-4-11-|

Verse
e-------------------------|
B-------------------------|
G-------------------------|
D-11-11--6-6--11-11--4-4--|
A-11-11--6-6--11-11--4-4--|
D-11-11--6-6--11-11--4-4--|


Lyrics

Beneath your calm,
Behind your smile,
You hide away your lies,
Intimidating, Manipulating,
The truth is in your eyes.

My days and nights get longer,
Winding on and on.
Love lost hours make us hard.
You are power mad
I think that's sad
Real powers in our hearts.

We live our way
Not how you say.
Our blood, our sweat
We have no regrets

Tough as steel,
Never show the pain we feel
Because we were tough as steel.

Every hour we are stronger
Inside us grows the rage
We cannot remain immune
To win you must kill
You'll never break our will
Our aim for glory is true

We live our way
Not how you say
Our blood, our sweat
We have no regrets.

Tough as steel,
Never show the pain we feel
Because we were tough as steel

Days and nights get longer
Winding on and on
Love lost hours make us hard
You are power mad
I think that's sad
Real powers in our hearts

We live our way
Not how you say
Our blood, our sweat
We have no regrets

Tough as steel,
Never show the pain we feel
Because we were tough as steel.

Tough as steel
Tough as steel
Tough, Tough,Tough,Tough,Tough,Tough,Tough




Добавлено: 07.03.2012
Другие материалы по этой песне:

Страница создана 07.03.2012
http://primanota.ru/blaze/steel-chords.htm
Привет, Гость.
Предлагаем пройти революционный курс по гитаре.
Подарок от PrimaNota.Ru, забирай!