PrimaNota.ru - самый крупный в мире бесплатный архив песенных текстов, аккордов, табулатур и нот


Blasters - Crazy Baby - таба, видео

Регистрация Запомнить меня
Войти через:  Facebook Google Twitter Vk Yandex Mail.ru

Blasters - Crazy Baby - таба, видео

Печатать
Просмотров: 163
nice cover of an old ron volz song.
blasters first album's gold.


            "CRAZY BABY"by The Blasters


|------------------|--------|--------||------------------|--------|--------|
|------------------|--------|--------||------------------|--------|--------|
|------------------|--------|--------||------------------|--------|--------|
|------------------|--------|--------||------------------|--------|--------|
|-----------2-2--4-|-2-2--4-|-2-2--4-||-----------2-2--4-|-2-2--4-|-2-2--4-|
|---0-0--4---------|--------|--------||---0-0--4---------|--------|--------|

 got me a crazy baby                    coolest little chick i know
|------------------|--------|--------||------------------|--------|--------|
|------------------|--------|--------||------------------|--------|--------|
|------------------|--------|--------||------------------|--------|--------|
|------------------|--------|--------||------------------|--------|--------|
|-----------2-2--4-|-2-2--4-|-2-2--4-||-----------2-2--4-|-2-2--4-|-2-2--4-|
|---0-0--4---------|--------|--------||---0-0--4---------|--------|--------|


i love that little honey       she digs that rocknroll
|---------------------------||---------------------------|
|---------------------------||---------------------------|
|---------------------------||---------------------------|
|----------2--4--5--4--2----||---------------------------|
|---0-0--4----------------4-||-----------2--4--5--4--2-4-|
|---------------------------||---0-0--4------------------|

 crazy baby i love you
|------------------------|--0-0-----0-|
|--------0---------------|--0-0-----0-|
|------2---------0-2-----|--1-1--0--1-|
|----1---------2---------|--2-2--0--2-|
|--2--------0------------|--2-2--0--2-|
|------------------------|--0-0-----0-|

crazy girl    crazy honey
|-----3--0----------|-----3--0----------|
|------------3~~~~--|------------3~~~~--|
|-------------------|-------------------|
|-------------------|-------------------|
|-------------------|-------------------|
|-------------------|-------------------|

crazy baby    all my own
|-----------------------|-----3--0------------0~~~~-|
|-----/5-/5--/5--/5~~~--|------------3--0--3--------|
|-----/6-/6--/6--/6~~~--|---------------------------|
|-----/7-/7--/7--/7~~~--|---------------------------|
|-----------------------|---------------------------|
|-----------------------|---------------------------|

 crazy baby,wanna take you home
|------2-2-2-|----3-3-3-|--0-0-----0-|
|------0-0-0-|----3-3-3-|--0-0-----0-|
|------------|----------|--1-1--0--1-|
|------------|----------|--2-2--0--2-|
|---2--------|-0--------|--2-2--0--2-|
|------------|----------|--0-0-----0-|

solo: 
|---12--12-12--12--12-12--12--12-12--12-12-|
|---12--12-12--12--12-12--12--12-12--12-12-|
|------------------------------------------|
|------------------------------------------|
|------------------------------------------|
|------------------------------------------|

|-12--12-12-12---15-15-15--12--15-15-15--12-|
|-12--12-12-12---15-15-15--12--15-15-15--12-|
|-------------------------------------------|
|-------------------------------------------|
|-------------------------------------------|

|--15-15-15--12--15-15-15--12--|
|--15-15-15--12--15-15-15--12--|
|------------------------------|
|------------------------------|
|------------------------------|
|------------------------------|
solo turnaround:
|-------------------------------|-0-0-----0-|
|--------------12---------------|-0-0-----0-|
|----------14-------------12-14-|-1-1--0--1-|
|------13-------------14--------|-2-2--0--2-|
|---14------------12------------|-2-2--0--2-|
|-------------------------------|-0-0-----2-|

 got me a crazy baby                    coolest little chick i know
|------------------|--------|--------||------------------|--------|--------|
|------------------|--------|--------||------------------|--------|--------|
|------------------|--------|--------||------------------|--------|--------|
|------------------|--------|--------||------------------|--------|--------|
|-----------2-2--4-|-2-2--4-|-2-2--4-||-----------2-2--4-|-2-2--4-|-2-2--4-|
|---0-0--4---------|--------|--------||---0-0--4---------|--------|--------|


i love that little honey       i love her so
|---------------------------||---------------------------|
|---------------------------||---------------------------|
|---------------------------||---------------------------|
|----------2--4--5--4--2----||---------------------------|
|---0-0--4----------------4-||-----------2--4--5--4--2-4-|
|---------------------------||---0-0--4------------------|

 crazy baby i love you
|------------------------|--0-0-----0-|
|--------0---------------|--0-0-----0-|
|------2---------0-2-----|--1-1--0--1-|
|----1---------2---------|--2-2--0--2-|
|--2--------0------------|--2-2--0--2-|
|------------------------|--0-0-----0-|

crazy girl    crazy honey
|-----3--0----------|-----3--0----------|
|------------3~~~~--|------------3~~~~--|
|-------------------|-------------------|
|-------------------|-------------------|
|-------------------|-------------------|
|-------------------|-------------------|

crazy baby    all my own
|-----------------------|-----3--0------------0~~~~-|
|-----/5-/5--/5--/5~~~--|------------3--0--3--------|
|-----/6-/6--/6--/6~~~--|---------------------------|
|-----/7-/7--/7--/7~~~--|---------------------------|
|-----------------------|---------------------------|
|-----------------------|---------------------------|

 crazy baby,wanna take you home
|------2-2-2-|----3-3-3-|--0-0-----0-|
|------0-0-0-|----3-3-3-|--0-0-----0-|
|------------|----------|--1-1--0--1-|
|------------|----------|--2-2--0--2-|
|---2--------|-0--------|--2-2--0--2-|
|------------|----------|--0-0-----0-|

cool little acsending part:
|---0--0-0-0-0--0--0-0-0-0--0---0--0--0--0---0---0--0--0--0--|
|---5--5-5-5-5--8--8-8-8-8--10--10-10-10-10--12--12-12-12-12-|
|------------------------------------------------------------|
|------------------------------------------------------------|
|------------------------------------------------------------|
|------------------------------------------------------------|
2nd solo:

|--15-15-15--12--15-15-15--12--|-15-15-15--12--15-15-15--12-|
|--15-15-15--12--15-15-15--12--|-15-15-15--12--15-15-15--12-|
|------------------------------|----------------------------|
|------------------------------|----------------------------|
|------------------------------|----------------------------|
|------------------------------|----------------------------|

|---------------------------------------------|
|------12-12------12-12-----12-12------12-12--|
|--14b--------14b-------14b--------14b--------|
|---------------------------------------------|
|---------------------------------------------|
|---------------------------------------------|

|-------------------------------|-0-0-----0-|
|--------------12---------------|-0-0-----0-|
|----------14-------------12-14-|-1-1--0--1-|
|------13-------------14--------|-2-2--0--2-|
|---14------------12------------|-2-2--0--2-|
|-------------------------------|-0-0-----2-|

the you repeat the intro riffs and verse but instead of the
b7 chord you do the outro which is:
|------------------------------|-------------|--0-0--0-|
|------------------------------|-------------|--0-0--0-|
|------------------------------|-------------|--1-1--1-|
|------------------------------|-----------2-|--2-2--2-|
|----------------0-0-0--1-1-1--|-2-2--3-4----|--2-2--2-|
|--0-0-0--4-4-4----------------|-------------|--0-0--0-|


woo! and that's all of The Blasters 1977 cover of "crazy baby"
i hope this helps you out, took awhile.

-Bertman!
Добавлено: 26.03.2012
Другие материалы по этой песне:
  • Аккорды и текст

Страница создана 26.03.2012
http://primanota.ru/blasters/crazy-baby-chords.htm
Привет, Гость.
Предлагаем пройти революционный курс по гитаре.
Подарок от PrimaNota.Ru, забирай!