PrimaNota.ru - самый крупный в мире бесплатный архив песенных текстов, аккордов, табулатур и нот


Blaster The Rocketboy - Im Only Humanoid - таба, видео

Регистрация Запомнить меня
Войти через:  Facebook Google Twitter Vk Yandex Mail.ru

Blaster The Rocketboy - Im Only Humanoid - таба, видео

Печатать
Просмотров: 100
		   I'm Only Humanoid (Lost In Space)
Blaster the Rocketboy

This is the tab for the version of "I'm Only Humanoid(Lost In Space)" 
which is off of SSFTV,THIS IS NOT THE DISASTEROID/I'M YOUR BIGGEST FAN 
VERSION!!

It starts off with a C chord on the 8th fret to a G7 on the 12th fret
   they look like this
   -8-8-8-8---13-13-13-13
   -8-8-8-8---12-12-12-12
   -9-9-9-9---12-12-12-12
 -10-10-10-10-12-12-12-12
   ----------------------
   ----------------------
    C C C C   G7 G7 G7 G7(please pardon the crudeness of my tab,it's the 
first time I've E-mailed tab to someone before) 

   repeat this about one time

   next you go into a C-G powerchord riff
   ---------------------------------
   ---------------------------------
   -5-5-5-5-5-5-5-5-----------------
   -5-5-5-5-5-5-5-5--5-5-5-5-5-5-5-5
   -3-3-3-3-3-3-3-3--5-5-5-5-5-5-5-5
   ------------------3-3-3-3-3-3-3-3
    C C C C C C C C  G G G G G G G G
   That's the verse.  Repeat it oh,about 7 or 8 times

   Then there's the little interludey-type-thing.
   --------------------------------------------------------------
   --------------------------------------------------------------
   -7-7-7-7--6-6-6-6--5-5-5-5--4-4-4-4--3-3-3-3--2-2-2-2--3-3-3-3
   -7-7-7-7--6-6-6-6--5-5-5-5--4-4-4-4--3-3-3-3--2-2-2-2--3-3-3-3
   -5-5-5-5--4-4-4-4--3-3-3-3--2-2-2-2--1-1-1-1--0-0-0-0--3-3-3-3
   --------------------------------------------------------------
    D D D D  C#C#C#C# C C C C  B B B B  A#A#A#A# A A A A  A#A#A#A#
   
    C that one time
  
    Now for the lost in space part
   
    
-----------------------------------------------------------------------
----------------------------------------------------------------------   
----------7-7-7-7--9-9-9-9--------------------7-7-7-7-----------9-9-9-9  
-7-7-7-7--7-7-7-7--9-9-9-9--9-9-9-9--7-7-7-7--7-7-7-7--9-9-9-9--9-9-9-9
-7-7-7-7--5-5-5-5--7-7-7-7--9-9-9-9--7-7-7-7--5-5-5-5--9-9-9-9--7-7-7-7
-5-5-5-5--------------------7-7-7-7--5-5-5-5-----------7-7-7-7---------
 A A A A  D D D D  E E E E  B B B B  A A A A  D D D D  B B B B  E E E E

Repeat this about 2x
  then bang on the A5(A power)chord

G here's the words with the chords
  C
  State the current satus
  G
  Of my sensory apparatus
  C
  Got no veins,no blood running through me
  G
  Only wires and electricity
  C
  Then I start to rocka' and I get a jolta' shocka'
  G
  And the vibes feel alive but I know I'm really dying
  C
  I try to fill the void but it only gets destroyed
  G
  I say I'm only human 
 
  But I'm only humanoid

  A   D   E    B
  Lost in space!
  A          D
  Gone without a trace
  B                   E
  I've gotta seek your seek your face
  A   D   E   B
  Lost in space
  A              D
  I'm gone without a trace
  B                E
  Oh God I need your grace
  A           A
  Casting down imaginations!           If there are any mistakes or if I 
                                       left something out, E-Mail me at
                                       BBWILLIA@STARTEXT.NET

                          -Austin Williams
(This song is P 1996 Boot to Head Records and C  1996 Blaster The 
Rocketboy)

     
Добавлено: 08.11.2013
Другие материалы по этой песне:
  • Аккорды и текст

Страница создана 08.11.2013
http://primanota.ru/blaster-the-rocketboy/im-only-humanoid-chords.htm
Привет, Гость.
Предлагаем пройти революционный курс по гитаре.
Подарок от PrimaNota.Ru, забирай!