PrimaNota.ru - самый крупный в мире бесплатный архив песенных текстов, аккордов, табулатур и нот


Blaster The Rocketboy - I Killed The Checkout Girl - таба, видео

Регистрация Запомнить меня
Войти через:  Facebook Google Twitter Vk Yandex Mail.ru

Blaster The Rocketboy - I Killed The Checkout Girl - таба, видео

Печатать
Просмотров: 146
Уроки эстрадного вокала в Санкт-Петербурге
		   artist: blaster the rocketboy
album: disasteroid
song: i killed the checkout girl
label: boot to head records
tabbed by Lars-   jesuspunk@hotmail.com

keep in mind that i have only showed the order in whcih the pattern 
goes. each power chord is strummed fast and a different number of times. 
so listen to the tape or Boot to Head sampler or make up your own! be 
creative!


beginning/1st part of verse

e|---------------------|
b|---------------------|
d|--9--7--15--9--7--2--|
a|--9--7--15--9--7--2--|
e|--7--5--12--7--5--0--|


2nd part of the verse

e|--------------|
b|--------------|
g|--------------|
d|--9--5--9--5--|
a|--9--5--9--5--|
e|--7--3--7--3--|


chorus

e|------------------------|
b|------------------------|
g|------------------------|
d|--5--12--10--5--12--10--|
a|--5--12--10--5--12--10--|
e|--3--10---8--3--10---8--|

where the guitar goes up by itself

e|--------------------|
b|--------------------|
g|--------------------|
d|--7--9--10--11--12--|
a|--7--9--10--11--12--|
e|--5--7---8---9--10--|

I'm kinda iffy on the previous one, but I'm pretty sure i got it right 
on the other parts. please forgive if this is slightly wrong, this is my 
first tab! it should be easy to play and i hope you enjoy it! 
God Bless!     
Добавлено: 24.06.2013
Вам также может быть интересно:
Другие материалы по этой песне:
  • Аккорды и текст

Страница создана 24.06.2013
http://primanota.ru/blaster-the-rocketboy/i-killed-the-checkout-girl-chords.htm
Привет, Гость.
Предлагаем пройти революционный курс по гитаре.
Подарок от PrimaNota.Ru, забирай!