PrimaNota.ru - самый крупный в мире бесплатный архив песенных текстов, аккордов, табулатур и нот


Blaster The Rocketboy - American Werewolf - таба, видео

Регистрация Запомнить меня
Войти через:  Facebook Google Twitter Vk Yandex Mail.ru

Blaster The Rocketboy - American Werewolf - таба, видео

Печатать
Просмотров: 114
		   artist: blaster the rocketboy
song: american werewolf
album: SSFFTV
tabbed out by LarzThePunk-  jesuspunk@hotmail.com


OK...here it goes! same as last time on "checkout girl" (my other tab) 
while you figure out how many times to strum while i tell you where to 
put your fingers! have fun!


beginning (in that peculiar pedal sound)


e|---------------|
b|---------------|
g|--8--2--8--14--|
d|--8--2--8--14--|
a|--6--0--6--12--|
e|---------------|
play this a few times, then...(distortion)


e|---------|
b|---------|
g|--4--10--|
d|--4--10--|
a|--2---8--|
e|---------|
play this 5 times total, then...


e|-----------|
b|-----------|
g|--6--9--4--|
d|--6--9--4--|
a|--4--7--2--|
e|-----------|
play this 4 times total, then...


"i am an american werewolf!"
e|--------------|
b|--------------|
g|--2-----7-----|
d|--2--5--7--5--|
a|--0--5--5--5--|
e|-----3-----3--|
play 4 times, then...


*growls* "WEREWOLF!!!"
e|-----------|
b|-----------|
g|-----------|
d|--4--3--2--|
a|--4--3--2--|
e|--2--1--0--|


REPEAT ALL!!! 


then the postlude part...(that peculiar pedal sound again until the end)


e|--------|
b|--------|
g|--4--7--|
d|--4--7--|
a|--2--5--|
e|--------|
and you end on...
e|-----|
b|-----|
g|--4--|
d|--4--|
a|--2--|
e|-----|



i hope this tab wasn't too hard to understand, i did this from my head 
because i don't even need the paper anymore. i hope you have as much fun 
that i have had with this! God Bless!     
Добавлено: 02.07.2013
Другие материалы по этой песне:
  • Аккорды и текст

Страница создана 02.07.2013
http://primanota.ru/blaster-the-rocketboy/american-werewolf-chords.htm
Привет, Гость.
Предлагаем пройти революционный курс по гитаре.
Подарок от PrimaNota.Ru, забирай!