PrimaNota.ru - самый крупный в мире бесплатный архив песенных текстов, аккордов, табулатур и нот


Blaster The Rocketboy - All The Way To The Blood Bank - таба, видео

Регистрация Запомнить меня
Войти через:  Facebook Google Twitter Vk Yandex Mail.ru

Blaster The Rocketboy - All The Way To The Blood Bank - таба, видео

Печатать
Просмотров: 155
		   Song:  "All the Way to the Blood Bank"
Artist:  Blaster the Rocketboy (man)
Album: Succulent Space Food for Teething Vampires
Copyright Boot to Head Records 1996
Tabbed by:  Jesse Gray  JGray@skantech.com


This whole first verse appears to be this (funky pedal)


e--------------------------------------------------
B--------------------------------------------------
G----------------------9---------------------------
D--9-------------------9(once)-----repeat----------
A--9- (several times)--7---------------------------
E--7-----------------------------------------------


He's a vampire!  She's a vampiress! (x2)-you go to the 
closet to make a deposit, but you find a blank wall so 
you make a withdrawal. and you find your self often
hidin out in a coffin wishing sunny days would go away
its hard for the unholy to make it in a big city


CHORUS:
e-----------------------------------------------
B-----------------------------------------------
G--7------7------7------------------------------
D--7------7------7-----7----7----7--------------
A--5------5------5-----7----7----7--------------
E----------------------5----5----5--------------


Deep!  Deep!  Deep!  In!  In!  In!


e-----------------------------------------------
B-----------------------------------------------
G-----------------------------------------------
D----5---------7--------------------------------
A----5---------7--------------------------------
E----3---------5--------------------------------


My teeth sa-ank!


e-----------------------------------------------
B-----------------------------------------------
G--7----7-------7------------------------------
D--7----7-------5-----7----7----7--------------
A--5----5-------5-----7----7----7--------------
E---------------------5----5----5--------------
  Ha!  Ha!  Ha! Ha!  Ha!   Ha!  Ha!


e-----------------------------------------------
B-----------------------------------------------
G-----------------------------------------------
D----5---------7--------------------------------
A----5---------7--------------------------------
E----3---------5--------------------------------


All the way to the blood bank!


e--------------------------------------------------
B--------------------------------------------------
G----------------------9---------------------------
D--9-------------------9(once)-----repeat----------
A--9- (several times)--7---------------------------
E--7-----------------------------------------------


REPEAT


In hollywood you ain't no good so you step in to the
eyeliner diner, and they set you up with their own red
wine and it all seems fine till you get the urge for a 
human neck! but what did you expect when you look to a
crowd to help you out tryin' hard to fit in, and you
still wind up dyin'!


REPEAT CHORUS


e-------------------------------------------------
B-------------------------------------------------
G--7-------7------7------------------------------
D--7-------7------7-------7----7----7--------------
A--5-------5------5-------7----7----7--------------
E-------------------------5----5----5--------------


I    beseech       the       leech.   


e-----------------------------------------------
B-----------------------------------------------
G-----------------------------------------------
D----5---------7--------------------------------
A----5---------7--------------------------------
E----3---------5--------------------------------


To suck on me, suck on me, suck on me.  (repeat)


e-----------------------------------------------
B-----------------------------------------------
G--7----7-------7------------------------------
D--7----7-------5-----7----7----7--------------
A--5----5-------5-----7----7----7--------------
E---------------------5----5----5--------------
  Ha!  Ha!  Ha! Ha!  Ha!   Ha!  Ha!


e-----------------------------------------------
B-----------------------------------------------
G-----------------------------------------------
D----5---------6--------------------------------
A----5---------6--------------------------------
E----3---------4--------------------------------


I want to suck your blood, bleh bleh! (softly 4x)


(the really really cool part)
e-----------------------------------------------
B-----------------------------------------------
G-----------------------------------------------
D----5---------6------------5----------5--------
A----5---------6------------5----------5--------
E----3---------4------------3----------3--------


Vam-pires!  emmm-pires! Vam-pires! Expirrree!


Accapello:
"There was so much blood, I've never seen so much blood"


e--------------------------------------------------
B--------------------------------------------------
G----------------------9---------------------------
D--9-------------------9(once)-----repeat----------
A--9- (several times)--7---------------------------
E--7-----------------------------------------------


I've got it by the gallon in my refrigarator, i'm
the undead and i'm not getting any better, and make
no mistake its not a wooden stake that'll end this
curse and put this ghoul in a hearse, what can wash
away my sin?  Nothing but the blood of Jesus!!!


e-----------------------------------------------
B-----------------------------------------------
G--7------7------7------------------------------
D--7------7------7-----7----7----7--------------
A--5------5------5-----7----7----7--------------
E----------------------5----5----5--------------


Deep!  Deep!  Deep!  In!  In!  In!


e-----------------------------------------------
B-----------------------------------------------
G-----------------------------------------------
D----5---------7--------------------------------
A----5---------7--------------------------------
E----3---------5--------------------------------


  The two edg-ed sword sank!


e-----------------------------------------------
B-----------------------------------------------
G--7----7-------7------------------------------
D--7----7-------5-----7----7----7--------------
A--5----5-------5-----7----7----7--------------
E---------------------5----5----5--------------
As it Rips! Shreds! Tears! Slash! Cut! Slice!


e-----------------------------------------------
B-----------------------------------------------
G-----------------------------------------------
D----5---------7--------------------------------
A----5---------7--------------------------------
E----3---------5--------------------------------


To sever me from the blood bank!


e-----------------------------------------------
B-----------------------------------------------
G--7------7------7------------------------------
D--7------7------7-----7----7----7--------------
A--5------5------5-----7----7----7--------------
E----------------------5----5----5--------------


The cross of Christ, His sacrifice!


e-----------------------------------------------
B-----------------------------------------------
G-----------------------------------------------
D----5---------7--------------------------------
A----5---------7--------------------------------
E----3---------5--------------------------------


  Paid the price!


e-----------------------------------------------
B-----------------------------------------------
G--7------7------7------------------------------
D--7------7------7-----7----7----7--------------
A--5------5------5-----7----7----7--------------
E----------------------5----5----5--------------


The cross of Christ, His sacrifice!


e-----------------------------------------------
B-----------------------------------------------
G-----------------------------------------------
D----5---------7--------------------------------
A----5---------7--------------------------------
E----3---------5--------------------------------


  Saved my life!  Saved my life!  Saved my life!


This whole thing is just power chords, its not noted 
but these are barre chords.  He's using what sounds
like a Big Muff.  Any fuzz distortion would sound
OK.  If its completely wrong (which I don't doubt)
or kind of wrong, or you just want to talk to me,
just e-mail me.  I'll try to convince my friend to e-mail 
the bass tab in soon!


JGray@skantech.com     
Добавлено: 04.08.2013
Другие материалы по этой песне:
  • Аккорды и текст

Страница создана 04.08.2013
http://primanota.ru/blaster-the-rocketboy/all-the-way-to-the-blood-bank-chords.htm
Привет, Гость.
Предлагаем пройти революционный курс по гитаре.
Подарок от PrimaNota.Ru, забирай!