PrimaNota.ru - самый крупный в мире бесплатный архив песенных текстов, аккордов, табулатур и нот


Blasted Mechanism - I Believe - таба, видео

Регистрация Запомнить меня
Войти через:  Facebook Google Twitter Vk Yandex Mail.ru

Blasted Mechanism - I Believe - таба, видео

Печатать
Просмотров: 119
Band: Blated Mechanism
Song: I Believe
Album: Namaste (2002)

Valdjiu: Kalachakra
Zymon: Guitar

Intro Live: Valdjiu  

e|-----------------------|
B|-----------------------|
G|-----------------------|
D|---2---5-4-2--4h5p4p2--|
A|-0---0-----------------|
E|-----------------------|

Verse: Vadjiu

I believe in the message         
e|---|                           
B|---|                              
G|---|                           
D|---|                           
A|-0-|                           
E|---|                           
                                  
I believe in the power of pray   
e|----|                          
B|----|                          
G|----|                          
D|-2--|                          
A|----|                          
E|----|                          
                                  
I believe in the future          
e|----|                          
B|----|                                     
G|----|                          
D|----|                          
A|-0--|                          
E|----|                          
                                 
I believe in the spiritual world 
e|-------|                       
B|-------|                       
G|-------|                       
D|-5-4-2-|                       
A|-------|                      
E|-------|                    

Verse: Zymon
e|---19(PH)----|
B|-------------|
G|-------------|
D|-------------|
A|-------------|
E|-------------|   

  
Lick: Valdjiu

e|------------------|
B|------------------|
G|------------------|
D|---2---5-4h5p4p2--| *2
A|-0---0------------|
E|------------------|

Indian: Zymon

Ishi, ni, san, shi, go, roku, shichi, hachi
e|---------------------------------------------------|
B|----------6h8---8-8---6-6--------------------------|
G|--5h7--7-----------------------7-7--7h9--7s5-------|
D|---------------------------------------------------| 
A|---------------------------------------------------|
E|---------------------------------------------------|


Techniques
h  --> Hammer On
p  --> Pull Off
s  --> Slide
PH --> Pinch Harmonic

Song Structure

Intro
Verse x 2
Lick
Verse x2
Indian x8
Verse x2
Indian x8
Djembe Solo (Without Guitar)
Verse x2
Indian x16
Karkow Ends (Only Singing)

This is my first transcription
Please Rate and any question and correction this is my mail
fabricio515_1995@hotmail.com

Blasted Mehanism MySpace
   http://www.myspace.com/blastedmechanism

Video of the song
   Live:
http://www.youtube.com/watch?v=J3jFGF4wxm8
   Official Video:
http://www.youtube.com/watch?v=tpqGBlwO1lc&feature=related

Lyrics
http://www.lyricsvip.com/Blasted-Mechanism/I-Believe-Lyrics.html
Добавлено: 17.07.2012
Другие материалы по этой песне:
  • Аккорды и текст

Страница создана 17.07.2012
http://primanota.ru/blasted-mechanism/i-believe-chords.htm
Привет, Гость.
Предлагаем пройти революционный курс по гитаре.
Подарок от PrimaNota.Ru, забирай!