PrimaNota.ru - самый крупный в мире бесплатный архив песенных текстов, аккордов, табулатур и нот


The Blanko - Face The Fear - таба, видео

Регистрация Запомнить меня
Войти через:  Facebook Google Twitter Vk Yandex Mail.ru

The Blanko - Face The Fear - таба, видео

Печатать
Просмотров: 116
Уроки эстрадного вокала в Санкт-Петербурге
Авторы музыки: Pauli Hauta-aho
Авторы текста: Pauli Hauta-aho
-------------------------------------------------------------------------------
                             Face The Fear - The Blanko
-------------------------------------------------------------------------------
Tabbed by: porojussi
E-mail: jussi.vanha@hotmail.com

Tuning: E A D G B E

e|-----------------------------------------|
B|---------------------------------11-13-15|
G|12-0-10-0-12-0-10-12-0-10-0-12-0---------| X5
D|-----------------------------------------|
A|-----------------------------------------|
E|-----------------------------------------|

e|------------------------------------------------------------------------------------|
B|------------------------------------------------------------------------------------|
G|12-0-10-0-12-0-14-15-0-14-0-15-0-14-15-17-19-0-17-0-19-0-20-19-0-17-0-20-19-17-15-14|
D|------------------------------------------------------------------------------------|
A|------------------------------------------------------------------------------------|
E|------------------------------------------------------------------------------------|

e|----------------------------------------------------------------------------------------------|
B|----------------------------------------------------------------------------------------------|
G|12-10-12-10-12-10-12-10-12-10-12-10-12-10-7-10-12-10-12-10-12-10-12-14-15-14-15-14-15-14-12-10|
D|----------------------------------------------------------------------------------------------|
A|----------------------------------------------------------------------------------------------|
E|----------------------------------------------------------------------------------------------|

e|-------------------------------------------------------------|
B|-------------------------8----8-10-11-10-11-13-15-13-15-18-20|
G|8-7-8-7-8-7-5-7-8-7-8-10---10--------------------------------|
D|-------------------------------------------------------------|
A|-------------------------------------------------------------|
E|-------------------------------------------------------------|



************************************

| /   slide up
| \   slide down
| h   hammer-on
| p   pull-off
| ~   vibrato
| +   harmonic
| x   Mute note
| b   Bend
| pb  Pre-bend
| br  Bend release
| pbr Pre-bend release
| brb Bend release bend

************************************
Добавлено: 04.06.2015
Другие материалы по этой песне:
  • Аккорды и текст

Страница создана 04.06.2015
http://primanota.ru/blanko/face-fear-chords.htm
Привет, Гость.
Предлагаем пройти революционный курс по гитаре.
Подарок от PrimaNota.Ru, забирай!