PrimaNota.ru - самый крупный в мире бесплатный архив песенных текстов, аккордов, табулатур и нот


Blank Skeme - Got To Get - аккорды и текст, видео

Регистрация Запомнить меня
Войти через:  Facebook Google Twitter Vk Yandex Mail.ru

Blank Skeme - Got To Get - аккорды и текст, видео

Печатать
Просмотров: 81
Got To Get
Blank Skeme
Got To Get- Blank Skeme
Transcribed by Hubbs
>From 2002 release Broken Bottles E P.

Intro: (x 4)
E-----------------------------------------------
B-----------------------------------------------
G-----------------------------------------------
D-----------------------------------------------
A--0-2-3-2--------3-3-3-3-0-0-0-0-0-2-3-2-------
E----------3-3-3-3------------------------------

Verse 1: (Guitar and Drums only)

G
I'm lovesick ...
C                                   A
I've been ...
G
Kill me ...
C                                 A                         (bass- G F#)
'Cause you ...

Pre-Chorus: (includes bass)

E                        C
And whether ...
G               A                (bass- G F#)
Or you ...
E                    C
One of ...
G                                  D
One of ...

Chorus: (x 2)

G             C
One of us has got to get
G             C
One of us has got to get
G             C                    G
One of us has got to get out of my mind

Intro: (x 2)
E-----------------------------------------------
B-----------------------------------------------
G-----------------------------------------------
D-----------------------------------------------
A--0-2-3-2--------3-3-3-3-0-0-0-0-0-2-3-2-------
E----------3-3-3-3------------------------------

Verse 2: (Guitar and Drums only)

G
I'm not ...
C                           A
Every time ...
G
I'm not ...
C                                         A                 (bass- G F#)
But I'll ...

Pre-Chorus: (Includes Bass)

E                        C
Because whether ...
G               A                (bass- G F#)
Or you ...
E                    C
One of ...
G                                  D
One of ...

Chorus: (x 2)

G             C
One of ...
G             C
One of ...
G             C                    G
One of ...

Bridge:

D                           E
You haunt ...
G                            A              B  C
C you ...
D                E
All along, ...
        G
G it's ...
      A
For a ...
     B
Some tequila ...
     C
Some Johnny ...
             D
Then I ...

Chorus:

G             C
One of ...
G             C
One of ...
G             C                    G
One of ...

     
Добавлено: 23.11.2013
Вам также может быть интересно:
Другие материалы по этой песне:
  • Аккорды и текст

Страница создана 23.11.2013
http://primanota.ru/blank-skeme/got-to-get-chords.htm
Привет, Гость.
Предлагаем пройти революционный курс по гитаре.
Подарок от PrimaNota.Ru, забирай!