PrimaNota.ru - самый крупный в мире бесплатный архив песенных текстов, аккордов, табулатур и нот


Blank Dogs - No Compass - таба, видео

Регистрация Запомнить меня
Войти через:  Facebook Google Twitter Vk Yandex Mail.ru

Blank Dogs - No Compass - таба, видео

Печатать
Просмотров: 125
Blank Dogs - No Compass
From the album "Under and Under" (In The Red Recordings 2009).

Tabbed by Isaac Murguia, July 30, 2013.
YouTube: Goadiroth

https://www.facebook.com/pages/Blank-Dogs/128886924534

NOTE: He doesn't play the Chorus EXACTLY the same throughout the song...
      For example, he might add one more strum of the 8th fret of B, and so on...
      But I tabbed the core structure of that riff. Cheers!

CHORUS:
e|---------------------------------|--------------------------------|
B|----------------6-6-666-8-888888-|---------------6-6-666-8-88-888-|
G|-5-7-87-5-7-777------------------|-5-7-87-5-7-77------------------|
D|---------------------------------|--------------------------------|
A|---------------------------------|--------------------------------|
E|---------------------------------|--------------------------------|

e|--------------------------------------------|
B|-9-9-999-8-88-8888-10-10--10-10-10-8-88-888-|
G|--------------------------------------------|
D|--------------------------------------------|
A|--------------------------------------------|
E|--------------------------------------------|

e|--------------------------------------------|
B|-9-9-999-8-88-888-10-10--10-10-10-8-88-8888-|
G|--------------------------------------------|
D|--------------------------------------------|
A|--------------------------------------------|
E|--------------------------------------------|

VERSE:
e|-------|-8-86----|-------|-8-86--|
B|-9--8--|------8--|-9--8--|-------|
G|-------|---------|-------|-------|
D|-------|---------|-------|-------|
A|-------|---------|-------|-------|
E|-------|---------|-------|-------|

e|-------------------|
B|-9-9-8-8-10-10-8-8-|
G|-------------------|
D|-------------------|
A|-------------------|
E|-------------------| [x8]

PRE-CHORUS:
e|-------------------------------|
B|-------------------------------|
G|-11--11-11-11-11-11---7--77777-|
D|-11--11-11-11-11-11---7--77777-|
A|-9---9--9--9--9--9----5--55555-|
E|-------------------------------| [x4]

Repeat CHORUS
Repeat VERSE
Repeat PRE-CHORUS
Repeat CHORUS

OUTRO:
e|---------------------|
B|-9-9-9-9-9-9--8-8----|
G|---------------------|
D|---------------------|
A|---------------------|
E|---------------------|

End. Please rate!
Добавлено: 28.06.2013
Другие материалы по этой песне:
  • Аккорды и текст

Страница создана 28.06.2013
http://primanota.ru/blank-dogs/no-compass-chords.htm
Привет, Гость.
Предлагаем пройти революционный курс по гитаре.
Подарок от PrimaNota.Ru, забирай!