PrimaNota.ru - самый крупный в мире бесплатный архив песенных текстов, аккордов, табулатур и нот


Blancmange - Wdyf - бас-таба, видео

Регистрация Запомнить меня
Войти через:  Facebook Google Twitter Vk Yandex Mail.ru

Blancmange - Wdyf - бас-таба, видео

Печатать
Просмотров: 54
Tabbed by: bassm99
E-mail: alanmatthews1966@yahoo.co.uk

Tuning: E, A, D, G

"WDYF" from the album "Blanc Burn" (2011)
Written by Arthur/Luscombe

Bass Starts: 0:22

Intro: (Play 8 Times)   

G|--------------------------------------------------------------------------|
D|--------------------------------------------------------------------------|
A|--------------------------------------------------------------------------|
E|--3-3---------------------------------------------------------------------|

Verse:

G|--------------------------------------------------------------------------|
D|--------------------------------------------------------------------------|
A|-----------3-3-(x4)-------------------------------------------------------|
E|--3-3-(x8)----------3-3-(x4)----------------------------------------------|

Chorus:

G|--------------------------------------------------------------------------|
D|--------------------------------------------------------------------------|
A|-----------3-3-(x4)----------5-5-(x2)-3-3-(x2)-----------15/--------------|
E|--3-3-(x4)----------3-3-(x4)-------------------3-3-(x4)-------------------|

Bass Stops: (1:43 - 1:47)

Repeat Verse:

Chorus:

G|--------------------------------------------------------------------------|
D|--------------------------------------------------------------------------|
A|-----------3-3-(x4)----------5-5-(x2)-3-3-(x2)----------------------------|
E|--3-3-(x4)----------3-3-(x4)-------------------3-3-(x4)-------------------|

Bass Stops: (2:52 - 3:17)

Repeat Verse:

Chorus:

G|--------------------------------------------------------------------------|
D|--------------------------------------------------------------------------|
A|-----------3-3-(x4)----------5-5-(x2)-3-3-(x2)----------------------------|
E|--3-3-(x4)----------3-3-(x4)-------------------3-3-(x4)-------------------|

Bass Stops: 4:23
Добавлено: 29.10.2015
Другие материалы по этой песне:
  • Аккорды и текст

Страница создана 29.10.2015
http://primanota.ru/blancmange/wdyf-chords.htm
Привет, Гость.
Предлагаем пройти революционный курс по гитаре.
Подарок от PrimaNota.Ru, забирай!