PrimaNota.ru - самый крупный в мире бесплатный архив песенных текстов, аккордов, табулатур и нот


Blancmange - Useless - бас-таба, видео

Регистрация Запомнить меня
Войти через:  Facebook Google Twitter Vk Yandex Mail.ru

Blancmange - Useless - бас-таба, видео

Печатать
Просмотров: 46
Tabbed by: bassm99
E-mail: alanmatthews1966@yahoo.co.uk

Tuning: E, A, D, G

"Useless" from the album "Semi Detached" (2015)
Written by Arthur

Bass Starts: 0:02

Intro:    

G|----5--5--5--5--5--5--5--5-----------------------------------5------------|
D|------------------------------5--5--5--5--5--5--5--5----------------------|
A|--3--3--3--3--3--3--3--3-----------------------------------3---(x12)------|
E|----------------------------3--3--3--3--3--3--3--3---(x2)-----------------|

Verse:

G|----5--5--5--5--5--5--5--5------------------------------------------------|
D|------------------------------5--5--5--5--5--5--5--5----------------------|
A|--3--3--3--3--3--3--3--3--------------------------------------------------|
E|----------------------------3--3--3--3--3--3--3--3---(x1)-----------------|

G|----5--5--5--5--5--5--5--5------------------------------------------------|
D|------------------------------5--5--5--5----------------------------------|
A|--3--3--3--3--3--3--3--3--------------------------------------------------|
E|----------------------------3--3--3--3---(x1)-----------------------------|

G|----5--5--5--5--5--5--5--5------------------------------------------------|
D|------------------------------5--5--5--5--5--5--5--5----------------------|
A|--3--3--3--3--3--3--3--3--------------------------------------------------|
E|----------------------------3--3--3--3--3--3--3--3---(x2)-----------------|

Chorus: (Play Twice)

G|----7--7--7--7----10--10--10--10----5--5--5--5--5--5--5--5----------------|
D|--------------------------------------------------------------------------|
A|--5--5--5--5----8---8---8---8-----3--3--3--3--3--3--3--3------------------|
E|--------------------------------------------------------------------------|

Verse:

G|----5--5--5--5--5--5--5--5------------------------------------------------|
D|------------------------------5--5--5--5--5--5--5--5----------------------|
A|--3--3--3--3--3--3--3--3--------------------------------------------------|
E|----------------------------3--3--3--3--3--3--3--3---(x3)-----------------|

Bridge:

G|----7--7--7--7----10--10--10--10----5--5--5--5----------------------------|
D|--------------------------------------------------------------------------|
A|--5--5--5--5----8---8---8---8-----3--3--3--3---(x1)-----------------------|
E|--------------------------------------------------------------------------|

G|----7--7--7--7----10--10--10--10----5--5--5--5--5--5--5--5----------------|
D|--------------------------------------------------------------------------|
A|--5--5--5--5----8---8---8---8-----3--3--3--3--3--3--3--3---(x1)-----------|
E|--------------------------------------------------------------------------|

G|----5--5--5--5--5--5--5--5--5--5--5--5------------------------------------|
D|--------------------------------------------------------------------------|
A|--3--3--3--3--3--3--3--3--3--3--3--3---(x1)-------------------------------|
E|--------------------------------------------------------------------------|

Verse:

G|----5--5--5--5--5--5--5--5------------------------------------------------|
D|------------------------------5--5--5--5--5--5--5--5----------------------|
A|--3--3--3--3--3--3--3--3--------------------------------------------------|
E|----------------------------3--3--3--3--3--3--3--3---(x1)-----------------|

G|----5--5--5--5--5--5--5--5------------------------------------------------|
D|------------------------------5--5--5--5----------------------------------|
A|--3--3--3--3--3--3--3--3--------------------------------------------------|
E|----------------------------3--3--3--3---(x1)-----------------------------|

G|----5--5--5--5--5--5--5--5------------------------------------------------|
D|------------------------------5--5--5--5--5--5--5--5----------------------|
A|--3--3--3--3--3--3--3--3--------------------------------------------------|
E|----------------------------3--3--3--3--3--3--3--3---(x2)-----------------|

Repeat Chorus:

Verse: 

G|----5--5--5--5--5--5--5--5------------------------------------------------|
D|------------------------------5--5--5--5--5--5--5--5----------------------|
A|--3--3--3--3--3--3--3--3--------------------------------------------------|
E|----------------------------3--3--3--3--3--3--3--3---(x4)-----------------|

Repeat Chorus:

Verse:

G|----5--5--5--5--5--5--5--5------------------------------------------------|
D|--------------------------------------------------------------------------|
A|--3--3--3--3--3--3--3--3---(x3)-------------------------------------------|
E|--------------------------------------------------------------------------|

End:

G|----5--5--5--5------------------------------------------------------------|
D|--------------------------------------------------------------------------|
A|--3--3--3--3--------------------------------------------------------------|
E|--------------------------------------------------------------------------|

Добавлено: 16.06.2016
Другие материалы по этой песне:
  • Аккорды и текст

Страница создана 16.06.2016
http://primanota.ru/blancmange/useless-chords.htm
Привет, Гость.
Предлагаем пройти революционный курс по гитаре.
Подарок от PrimaNota.Ru, забирай!