PrimaNota.ru - самый крупный в мире бесплатный архив песенных текстов, аккордов, табулатур и нот


Blancmange - Ive Seen The Word - бас-таба, видео

Регистрация Запомнить меня
Войти через:  Facebook Google Twitter Vk Yandex Mail.ru

Blancmange - Ive Seen The Word - бас-таба, видео

Печатать
Просмотров: 70
Tabbed by: bassm99
E-mail: alanmatthews1966@yahoo.co.uk

Tuning: E, A, D, G

"I've Seen The Word" from the album "Happy Families" (1982)
Written by Arthur/Luscombe

Bass Starts: 0:01

Intro: 

G|--------------------------------------------------------------------------|
D|--------------------------------------------------------------------------|
A|--5-5-5-5-5-5-(x8)--------------------------------------------------------|
E|--------------------------------------------------------------------------|  

G|--------------------------------------------------------------------------|
D|--------------------------------------------------------------------------|
A|--5-5-5-5-5-5-(x2)-10-10-10-10-10-10-(x2)---------------------------------|
E|------------------------------------------8-8-8-8-8-8-8-8-(x2)------------|

G|--------------------------------------------------------------------------|
D|--------------------------------------------------------------------------|
A|--5-5-5-5-5-5-(x2)--------------------------------------------------------|
E|--------------------------------------------------------------------------|

Verse: (Play Twice)

G|--------------------------------------------------------------------------|
D|--------------------------------------------------------------------------|
A|--5-5-5-5-5-5-(x2)-10-10-10-10-10-10-(x2)---------------------------------|
E|------------------------------------------8-8-8-8-8-8-8-8-(x2)------------|

G|--------------------------------------------------------------------------|
D|--------------------------------------------------------------------------|
A|--5-5-5-5-5-5-(x2)--------------------------------------------------------|
E|--------------------------------------------------------------------------|

Instrumental:

G|--------------------------------------------------------------------------|
D|--------------------------------------------------------------------------|
A|--5-5-5-5-5-5-(x2)-10-10-10-10-10-10-(x2)---------------------------------|
E|------------------------------------------8-8-8-8-8-8-8-8-(x2)------------|

G|--------------------------------------------------------------------------|
D|--------------------------------------------------------------------------|
A|--5-5-5-5-5-5-(x2)--------------------------------------------------------|
E|--------------------------------------------------------------------------|

Repeat Verse:

Chorus:

G|--------------------------------------------------------------------------|
D|--------------------------------------------------------------------------|
A|--5-5-5-5-5-5-(x2)-10-10-10-10-10-10-(x2)---------------------------------|
E|------------------------------------------8-8-8-8-8-8-8-8-(x2)------------|

G|--------------------------------------------------------------------------|
D|--------------------------------------------------------------------------|
A|--5-5-5-5-5-5-(x2)--------------------------------------------------------|
E|--------------------------------------------------------------------------|

G|--------------------------------------------------------------------------|
D|--------------------------------------------------------------------------|
A|--5-5-5-5-5-5-(x2)-10-10-10-10-10-10-(x2)-8-8-8-8-8-8-(x2)----------------|
E|--------------------------------------------------------------------------|

G|--------------------------------------------------------------------------|
D|--------------------------------------------------------------------------|
A|--10-10-10-10-10-10-(x2)-8-8-8-8-8-8-(x2)-10-10-10-10-10-10-(x2)----------|
E|--------------------------------------------------------------------------|

G|--------------------------------------------------------------------------|
D|--------------------------------------------------------------------------|
A|--5-5-5-5-5-5-(x2)-10-10-10-10-10-10-(x2)---------------------------------|
E|------------------------------------------8-8-8-8-8-8-8-8-(x2)------------|

G|--------------------------------------------------------------------------|
D|--------------------------------------------------------------------------|
A|--5-5-5-5-5-5-(x2)--------------------------------------------------------|
E|--------------------------------------------------------------------------|

Ending: (Play 14 Times)

G|--------------------------------------------------------------------------|
D|--------------------------------------------------------------------------|
A|--5-5-5-5-5-5-------------------------------------------------------------|
E|--------------------------------------------------------------------------|
Добавлено: 29.10.2015
Другие материалы по этой песне:
  • Аккорды и текст

Страница создана 29.10.2015
http://primanota.ru/blancmange/ive-seen-word-chords.htm
Привет, Гость.
Предлагаем пройти революционный курс по гитаре.
Подарок от PrimaNota.Ru, забирай!