PrimaNota.ru - самый крупный в мире бесплатный архив песенных текстов, аккордов, табулатур и нот


Blancmange - It Didnt Take Long - бас-таба, видео

Регистрация Запомнить меня
Войти через:  Facebook Google Twitter Vk Yandex Mail.ru

Blancmange - It Didnt Take Long - бас-таба, видео

Печатать
Просмотров: 51
Tabbed by: bassm99
E-mail: alanmatthews1966@yahoo.co.uk

Tuning: E, A, D, G

"It Didn't Take Long" from the album "Semi Detached" (2015)
Written by Arthur

Bass Starts: 0:08

Intro:    

G|--------------------------------------------------------------------------|
D|--------------------------------------------------------------------------|
A|--9-9-9-9-9-9-9-9-9-9-9-9-9-9-9-9-----------------------------------------|
E|--------------------------------------------------------------------------|

Verse:

G|--------------------------------------------------------------------------|
D|--------------------------------------------------------------------------|
A|--9-9-9-9-9-9-9-9---------------9-9-9-9-(x2)---------------9-9-9-9-(x1)---|
E|-------------------12-12-12-12----------------12-12-12-12-----------------|

G|--------------------------------------------------------------------------|
D|--------------------------------------------------------------------------|
A|--9-9-9-9-9-9-9-9---------------9-9-9-9-(x1)---------------9-9-9-9-(x1)---|
E|-------------------12-12-12-12----------------12-12-12-12-----------------|

Instrumental:

G|--------------------------------------------------------------------------|
D|--------------------------------------------------------------------------|
A|--9-9-9-9-9-9-9-9---------------9-9-9-9-(x1)---------------9-9-9-9-(x1)---|
E|-------------------12-12-12-12----------------12-12-12-12-----------------|

Bridge:

G|--------------------------------------------------------------------------|
D|--------------------------------------------------------------------------|
A|--11-11------------9-9-9-9--10-10-(x1)--11-11------------9-9-9-9-(x1)-----|
E|---------9-9-(x3)------------------------------9-9-(x3)-------------------|

Repeat Instrumental:

Bass Stops: (3:00 - 3:04)

Verse:

G|--------------------------------------------------------------------------|
D|--------------------------------------------------------------------------|
A|--9-9-9-9-9-9-9-9---------------9-9-9-9-(x1)---------------9-9-9-9-(x1)---|
E|-------------------12-12-12-12----------------12-12-12-12-----------------|

Ending: (Play 3 Times)

G|--------------------------------------------------------------------------|
D|--------------------------------------------------------------------------|
A|--9-9-9-9-9-9-9-9---------------9-9-9-9-----------------------------------|
E|-------------------12-12-12-12--------------------------------------------|
Добавлено: 16.06.2016
Вам также может быть интересно:
Другие материалы по этой песне:
  • Аккорды и текст

Страница создана 16.06.2016
http://primanota.ru/blancmange/it-didnt-take-long-chords.htm
Привет, Гость.
Предлагаем пройти революционный курс по гитаре.
Подарок от PrimaNota.Ru, забирай!