PrimaNota.ru - самый крупный в мире бесплатный архив песенных текстов, аккордов, табулатур и нот


Blancmange - Gods Kitchen - бас-таба, видео

Регистрация Запомнить меня
Войти через:  Facebook Google Twitter Vk Yandex Mail.ru

Blancmange - Gods Kitchen - бас-таба, видео

Печатать
Просмотров: 42
Tabbed by: bassm99
E-mail: alanmatthews1966@yahoo.co.uk

Tuning: E, A, D, G

"God's Kitchen" from the album "Happy Families" (1982)
Written by Neil Arthur/Stephen Luscombe

Intro:   

G|--------------------------------------------------------------------------|
D|--------------------------------------------------------------------------|
A|--------3-5-7--------3-5-7--------3-5-7-----------------------------------|
E|--0-3-5-------5--3-5-------5--3-5-------5---------------------------------|

Verse: (Play Twice)

G|--------------------------------------------------------------------------|
D|--------------------------------------------------------------------------|
A|--------3-5-7--------3-5-7--------3-5-7-----------------------------------|
E|--0-3-5-------5--3-5-------5--3-5-------5---------------------------------|

Chorus: (Play Twice)

G|--------------------------------------------------------------------------|
D|--------------------------------------------------------------------------|
A|--7-5-3----7-5-3----7-5-3-------------------------------------------------|
E|--------5--------5--------5--0-3-5----------------------------------------|

Repeat Verse:

Repeat Chorus:

Bass Stops: (1:06 - 1:14)

Repeat Intro:

Repeat Chorus:

Repeat Verse:

Repeat Chorus:

Bridge: (Bass Stops 2:06 - 2:22)

Repeat Chorus:

Repeat Verse:

Добавлено: 29.10.2015
Другие материалы по этой песне:
  • Аккорды и текст

Страница создана 29.10.2015
http://primanota.ru/blancmange/gods-kitchen-chords.htm
Привет, Гость.
Предлагаем пройти революционный курс по гитаре.
Подарок от PrimaNota.Ru, забирай!