PrimaNota.ru - самый крупный в мире бесплатный архив песенных текстов, аккордов, табулатур и нот


Blancmange - The Fall - бас-таба, видео

Регистрация Запомнить меня
Войти через:  Facebook Google Twitter Vk Yandex Mail.ru

Blancmange - The Fall - бас-таба, видео

Печатать
Просмотров: 97
Уроки эстрадного вокала в Санкт-Петербурге
Tabbed by: bassm99
E-mail: alanmatthews1966@yahoo.co.uk

Tuning: E, A, D, G

"The Fall" from the album "Semi Detached" (2015)
Written by Arthur/Henderson

Bass Starts: 0:42

Intro: (Play 8 Times)   

G|--------------------------------------------------------------------------|
D|--------------------------------------------------------------------------|
A|--10-10-10-10-10-10-10-10-------------------------------------------------|
E|--------------------------------------------------------------------------|

Verse: (Play 8 Times)

G|--------------------------------------------------------------------------|
D|--------------------------------------------------------------------------|
A|--10-10-10-10-10-10-10-10-------------------------------------------------|
E|--------------------------------------------------------------------------|

Repeat Intro: (Play 4 Times)

Repeat Verse:

Chorus: (Play 4 Times)

G|--------------------------------------------------------------------------|
D|--------------------------------------------------------------------------|
A|--10-10-10-10-10-10-10-10-------------------------------------------------|
E|--------------------------------------------------------------------------|

Repeat Intro: (Play 4 Times)

Bass Stops: (3:48 - 4:29)

Repeat Intro: (Play 4 Times)

Repeat Verse: (Play 6 Times)

Bass Stops: (5:21 - 5:36)

Repeat Chorus:

Repeat Intro: (Play 4 Times)

Bass Stops: (6:17 - 6:23)

Repeat Chorus:

Repeat Intro: (Play 15 Times)

End: (Fades Out)

G|--------------------------------------------------------------------------|
D|--------------------------------------------------------------------------|
A|--10-10-10-10-10-10-10----------------------------------------------------|
E|--------------------------------------------------------------------------|
Добавлено: 29.10.2015
Другие материалы по этой песне:
  • Аккорды и текст

Страница создана 29.10.2015
http://primanota.ru/blancmange/fall-chords.htm
Привет, Гость.
Предлагаем пройти революционный курс по гитаре.
Подарок от PrimaNota.Ru, забирай!