PrimaNota.ru - самый крупный в мире бесплатный архив песенных текстов, аккордов, табулатур и нот


Blancmange - Dont Forget Your Teeth - бас-таба, видео

Регистрация Запомнить меня
Войти через:  Facebook Google Twitter Vk Yandex Mail.ru

Blancmange - Dont Forget Your Teeth - бас-таба, видео

Печатать
Просмотров: 68
Tabbed by: bassm99
E-mail: alanmatthews1966@yahoo.co.uk

Tuning: E, A, D, G

"Don't Forget Your Teeth" from the album "Blanc Burn" (2011)
Written by Arthur/Luscombe

Bass Starts: 0:04

Intro: (Play Twice)   

G|--------------------------------------------------------------------------|
D|--------------------------------------------------------------------------|
A|------9------9-9-(x2)-----4------4-4-(x1)-----9------9-9-(x1)-------------|
E|--7-7----7-7----------2-2----2-2----------7-7----7-7----------------------|

Verse:

G|--------------------------------------------------------------------------|
D|--------------------------------------------------------------------------|
A|------9------9-9------9-(x1)-----4------4-4-(x1)-----9------9-9-(x1)------|
E|--7-7----7-7------7-7--------2-2----2-2----------7-7----7-7---------------|

G|--------------------------------------------------------------------------|
D|--------------------------------------------------------------------------|
A|------9------9-9-(x2)-----4------4-4-(x1)-----9------9-9-(x1)-------------|
E|--7-7----7-7----------2-2----2-2----------7-7----7-7----------------------|

G|--------------------------------------------------------------------------|
D|--------------------------------------------------------------------------|
A|------9------9-9-(x2)-----4------4-4-(x1)-----9------9-9-(x1)-------------|
E|--7-7----7-7----------2-2----2-2----------7-7----7-7----------------------|

G|--------------------------------------------------------------------------|
D|--------------------------------------------------------------------------|
A|------9------9-9-(x2)-----4------4-4-(x1)-----9------9-9-(x1)-------------|
E|--7-7----7-7----------2-2----2-2----------7-7----7-7----------------------|

Bass Stops: (1:27 - 1:41)

Repeat Intro:

Verse: (Play 5 Times)

G|--------------------------------------------------------------------------|
D|--------------------------------------------------------------------------|
A|------9------9-9-(x2)-----4------4-4-(x1)-----9------9-9-(x1)-------------|
E|--7-7----7-7----------2-2----2-2----------7-7----7-7----------------------|

Ending:

G|--------------------------------------------------------------------------|
D|--------------------------------------------------------------------------|
A|------9------9-9-(x2)-----4------4-4-(x1)-----9------9-9-(x1)-------------|
E|--7-7----7-7----------2-2----2-2----------7-7----7-7----------------------|

End: (Bass Stops At 3:35)

G|--------------------------------------------------------------------------|
D|--------------------------------------------------------------------------|
A|--------------------------------------------------------------------------|
E|--7-----------------------------------------------------------------------|
Добавлено: 29.10.2015
Другие материалы по этой песне:
  • Аккорды и текст

Страница создана 29.10.2015
http://primanota.ru/blancmange/dont-forget-your-teeth-chords.htm
Привет, Гость.
Предлагаем пройти революционный курс по гитаре.
Подарок от PrimaNota.Ru, забирай!