PrimaNota.ru - самый крупный в мире бесплатный архив песенных текстов, аккордов, табулатур и нот


Blaenavon - Wunderkind - таба, видео

Регистрация Запомнить меня
Войти через:  Facebook Google Twitter Vk Yandex Mail.ru

Blaenavon - Wunderkind - таба, видео

Печатать
Просмотров: 120
-------------------------------------------------------------------------------
                             Wunderkind - Blaenavon
-------------------------------------------------------------------------------

This song is pretty easy. It's mostly just strummed chords with a few riffs in between.

You may need to listen to the song for timing, but it's not super hard.

Tuning:Standard

Intro:

e|----------------------------------12+--------------------------------------|
B|-----------------------------13---------12+--------------------------------|
G|------14---------12+-------------------------------------------------------|
D|---------------------------------------------------------------------------|
A|------------------------12+------------------------------------------------|
E|--13--------12+------------------------------------------------------------|

e|----------------------------------12+---19+--------------------------------|
B|-----------------------------13--------------------------------------------|
G|------14---------12+-------------------------------------------------------|
D|---------------------------------------------------------------------------|
A|------------------------12+------------------------------------------------|
E|--13--------12+------------------------------------------------------------|

Verse:

F       Em
Lost at sea
   Am
Forever you and me, if I could
F         Em
Reach the edge, 
    Am
And find the only end pretending
F      Em
Not to hide, 
Am
I find myself inside but only 
F  Em
Realize
Am
You never end inside

Main Riff: (I think Ben plays with it a little bit when he does it live, so just play whatever sounds good.)
e|-------------------------------------------------------------------------------------------|
B|-------------------------------------------------------------------------------------------|
G|-----------------------------------------------14--14--14-14--14--14-14--14--14-14--14--14-|
D|---15--15--15-15--15--15-14--14--14-14--14--14---------------------------------------------|
A|-------------------------------------------------------------------------------------------|
E|-------------------------------------------------------------------------------------------|

e|-----------------------------------------------------------------------------------------------|
B|-----------------------------------------------------------------------------------------------|
G|---------------------------------------------14--14--14-14--14--14-14--17h19-17--14-19--17--14-|
D|-15--15--15-15--15--15-14--14--14-14--14--14---------------------------------------------------|
A|-----------------------------------------------------------------------------------------------|
E|-----------------------------------------------------------------------------------------------|

e|------------17--------------------17------------------------------------------------|
B|------------------------------------------------------------------------------------|
G|---------------------------------------------14--14--14-14--17h19-17--14-19--17--14-|
D|-15--15--15-----15--15-14--14--14-----14--14----------------------------------------|
A|------------------------------------------------------------------------------------|
E|------------------------------------------------------------------------------------|

e|------------17--------------------17-----------------------------------------------|
B|-----------------------------------------------------------------------------------|
G|---------------------------------------------14--14--14-17--17--17--19--19--19--21-|
D|-15--15--15-----15--15-14--14--14-----14--14---------------------------------------|
A|-----------------------------------------------------------------------------------|
E|-----------------------------------------------------------------------------------|

Verse 2: (If you're singing along and feel brave, you could play the intro riff over this verse. The timing was 
          a bit hard for me at first but i got it eventually)

F        Em
Find the one
Am
Escape the drowning sun so empty
F      Em
People cry 
Am
For losing all their mindsets over
F      Em
Family ties
Am
Mistakes and lonely crimes avoid the
F      Em
Midday kite (?)
Am
A necessary sight

Riff

Outro: (Just play the lower notes of the intro riff, they're just the roots of each chord up an octave so I'll 
        put the chords here.)

F                     Em
Cause I will take you to the edge
        Am
Through darkness and the wilderness
F        Em                    Am
Take our fear and turn it into dust
F              Em
Lie to you and count to ten
      Am
Every time I do inside my head
F                   Em             Am
Crush our loss with vain inside my palms.
************************************

| /   slide up
| \   slide down
| h   hammer-on
| p   pull-off
| ~   vibrato
| +   harmonic
| x   Mute note
| b   Bend
| pb  Pre-bend
| br  Bend release
| pbr Pre-bend release
| brb Bend release bend

************************************
Добавлено: 20.06.2016
Другие материалы по этой песне:
  • Аккорды и текст

Страница создана 20.06.2016
http://primanota.ru/blaenavon/wunderkind-chords.htm
Привет, Гость.
Предлагаем пройти революционный курс по гитаре.
Подарок от PrimaNota.Ru, забирай!