PrimaNota.ru - самый крупный в мире бесплатный архив песенных текстов, аккордов, табулатур и нот


Blackwall Hitch - Wild Child - таба, видео

Регистрация Запомнить меня
Войти через:  Facebook Google Twitter Vk Yandex Mail.ru

Blackwall Hitch - Wild Child - таба, видео

Печатать
Просмотров: 89
                                   WILD CHILD
                         As recorded by Blackwall Hitch
                          (From the 2002 Album BROKEN)

Words by Johan Eriksson
Music by Johan Eriksson and Blackwall Hitch
Arranged by Blackwall Hitch

          Bm                    G                    A                    D
      x 2 4 4 3 2          3 5 5 x x x          5 7 7 x x x          x 5 7 7 
x x

Gtr I (E A D G B E) - 'Gitar 1'
Gtr II (E A D G B E) - 'Gitar 2'
Gtr III (E A D G B E) - 'Gitar 3'
Gtr IV (E A D G B E) - 'Gitar 4'

  Fast Rock Q=140
                                                                N.C
4/4
  Gtr I
|----------------------------------------------------------------|
|---0-2-3--2-3p-2p-0p----0-2-3-2-0-----2-3-2-0---3-2---3-2-------|
|------------------------------------2---------------------------|
|----------------------------------------------0-----------------|
|-2--------------------------------0-----------------0-----------|
|----------------------3-----------------------------------------|


  Bm              G G             A   A           D     D  A     A  A
  Gtr II
|-2-2-2-2-2-2-2-2----------------------------------------------------|
|-3-3-3-3-3-3-3-3----------------------------------------------------|
|-4-4-4-4-4-4-4-4---------------------------------7-7-7-7------------|
|-4-4-4-4-4-4-4-2-5-5-5-5-5-5-5-5-7-7-7-7-7-7-7-7-7-7-7-7--7-7-7-7---|
|-2-2-2-2-2-2-2-2-3-5-5-5-5-5-5-5-5-7-7-7-7-7-7-7-5-5-5-5--7-7-7-7---|
|-----------------3-3-3-3-3-3-3-3-5-5-5-5-5-5-5-5----------5-5-5-5---|


  Bm      G       A       D   A
  Gtrs II, III
|-2-2-2-2----------------------------|
|-3-3-3-3----------------------------|
|-4-4-4-4-----------------7-7--------|
|-4-4-4-4-5-5-5-5-7-7-7-7-7-7-7-7----|
|-2-2-2-2-5-5-5-5-7-7-7-7-5-5-7-7----|
|---------3-3-3-3-5-5-5-5-----5-5----|


  Bm      G       Bm      G       Bm      G       Bm      A
  Gtrs II, III
|-2-2-2-2---------2-2-2-2---------2-2-2-2---------2-2-2-2---------------|
|-3-3-3-3---------3-3-3-3---------3-3-3-3---------3-3-3-3---------------|
|-4-4-4-4---------4-4-4-4---------4-4-4-4---------4-4-4-4---------------|
|-4-4-4-4-5-5-5-5-4-4-4-4-5-5-5-5-4-4-4-4-5-5-5-5-4-4-4-4-7-7-7-7-7-7-7-|
|-2-2-2-2-5-5-5-5-2-2-2-2-5-5-5-5-2-2-2-2-5-5-5-5-2-2-2-2-7-7-7-7-7-7-7-|
|---------3-3-3-3---------3-3-3-3---------3-3-3-3---------5-5-5-5-5-5-5-|


  D       A       B       G
  Gtrs II, III
|------------------------------------|
|------------------------------------|
|-7-7-7-7----------------------------|
|-7-7-7-7-7-7-7-7-9-9-9-9-5-5-5-5----|
|-5-5-5-5-7-7-7-7-9-9-9-9-5-5-5-5----|
|---------5-5-5-5-7-7-7-7-3-3-3-3----|


  Gtr IV
|-------------------------------------5---7----|
|---2s7---------------------------5-7---7------|
|-4-----9-7---7-9-7-9-7---7-9-4-7--------------|
|-----------9-----------9----------------------|
|----------------------------------------------|
|----------------------------------------------|


  F#      G       A       G   A
  Gtrs II, III
|------------------------------------|
|------------------------------------|
|------------------------------------|
|-4-4-4-4-5-5-5-5-7-7-7-7-5-5-7-7----|
|-4-4-4-4-5-5-5-5-7-7-7-7-5-5-7-7----|
|-2-2-2-2-3-3-3-3-5-5-5-5-3-3-5-5----|


  B       D       G       F#  G F#B
  Gtr II
|--------------------------------------|
|--------------------------------------|
|-4-4-4-4-7-7-7-7-----------------4----|
|-4-4-4-4-7-7-7-7-5-5-5-5-4-4-5-4-4----|
|-2-2-2-2-5-5-5-5-5-5-5-5-4-4-5-4-2----|
|-----------------3-3-3-3-2-2-3-2------|


  Gtr IV
|------------------------------|
|------------------------------|
|------------------------------|
|-----2-4-4-5-4---4------------|
|-2-5-----------5---5-4-3-2----|
|------------------------------|


Tablature Legend
----------------
h   - hammer-on
p   - pull-off
b   - bend
pb  - pre-bend
r   - bend release (if no number after the r, then release immediately)
/\  - slide into or out of (from/to "nowhere")
s   - legato slide
S   - shift slide
 n>  - natural harmonic
[n]  - artificial harmonic
n(n) - tapped harmonic
~   - vibrato
tr  - trill
T   - tap
TP  - trem. picking
PM  - palm muting
\n/  - tremolo bar dip; n = amount to dip
\n  - tremolo bar down
n/  - tremolo bar up
/n\  - tremolo bar inverted dip
=   - hold bend; also acts as connecting device for hammers/pulls
 >  - volume swell (louder/softer)
x   - on rhythm slash represents muted slash
o   - on rhythm slash represents single note slash

Misc Legend
-----------
|  - bar
||  - double bar
||o - repeat start
o|| - repeat end
*|  - double bar (ending)
:  - bar (freetime)
$  - Segno
&  - Coda
Tempo markers -  E/E./Q/Q./H/H.> = BPM(8/16=s8/s16), where s8 = swing 8ths, 
s16 = swing 16ths


* Generated using Power Tab Editor by Brad Larsen - 
http://powertab.guitarnetwork.org *
     
Добавлено: 11.07.2013
Другие материалы по этой песне:
  • Аккорды и текст

Страница создана 11.07.2013
http://primanota.ru/blackwall-hitch/wild-child-chords.htm
Привет, Гость.
Предлагаем пройти революционный курс по гитаре.
Подарок от PrimaNota.Ru, забирай!