PrimaNota.ru - самый крупный в мире бесплатный архив песенных текстов, аккордов, табулатур и нот


Blackout City Kids - Wrong Turn - аккорды и текст, видео

Регистрация Запомнить меня
Войти через:  Facebook Google Twitter Vk Yandex Mail.ru

Blackout City Kids - Wrong Turn - аккорды и текст, видео

Печатать
Просмотров: 372
Wrong Turn
Blackout City Kids
Hi, 
this is song from Wrong Turn 4. Enjoy it..
(my first tabs)


Into:
Am, F, C, G 

or  


     Am
e|--------------------------------------------------------------------|
B|-----------------------1----------------------------1---------------|
G|------2---0^2--2----2----2---2----0^2--2----2----2----2---2---------|
D|----2---2---------2--------2--------------2----2--------2-----------|
A|--0-----------------------------------------------------------------|
E|--------------------------------------------------------------------|


     C                                G
e|----------0-------0^1--1--------------------------------------------|
B|------------1------------1---1--------------0-----------------------|
G|------0---------0----------0------------0---------0-------0-------0-|   And repeat.. 
D|----2---2-----------------------------0---0-----0-------0-------0---|  
A|--3-----------------------------------------------------------------|
E|------------------------------------3---------------3-------2-------|



Am
Take a bruised chin take a skinned knee
F
Take a million hits before I ever concede
C                               G
Scream is that all you got as I bleed

Am
I always come back, I never disappear
F
Even if I take my final breaths here
   C                               G
I need you now, don't fade away on me

                    Am
'Cause I made a mistake,
                        F
I think I took a wrong turn
                     C
Somewhere along the way,
             G
I sealed my fate

                          Am
And all I know is you're gone,
                   F
Yeah you're gone away
                     C
I'll never touch your face
                     G
I'll never see you again

       Am
And I watch each day through the falling snow,
     F
The dead men walking through their highs and lows
 C                                        G                               
Wishing they could start again somewhere new

        Am
And I stare at the cold and I feel their pain,
   F
I watch as their life slowly fades away.
   C
I see their eyes, they're piercing mine,
         G
There's nothing I can say



                    Am
'Cause I made a mistake,
                        F
I think I took a wrong turn
                     C
Somewhere along the way,
             G
I sealed my fate

                          Am
And all I know is you're gone,
                   F
Yeah you're gone away
                     C
I'll never touch your face
                     G
I'll never see you again


Am, F, C, G  x3

                    Am
'Cause I made a mistake,
                        F
I think I took a wrong turn
                     C
Somewhere along the way,
             G
I sealed my fate

                          Am
And all I know is you're gone,
                   F
Yeah you're gone away
                     C
I'll never touch your face
                     G
I'll never see you again
Добавлено: 07.08.2014
Другие материалы по этой песне:

Страница создана 20.06.2012
http://primanota.ru/blackout-city-kids/wrong-turn-chords.htm
Привет, Гость.
Предлагаем пройти революционный курс по гитаре.
Подарок от PrimaNota.Ru, забирай!