PrimaNota.ru - самый крупный в мире бесплатный архив песенных текстов, аккордов, табулатур и нот


Blackmores Night - Mondtanz - таба, видео

Регистрация Запомнить меня
Войти через:  Facebook Google Twitter Vk Yandex Mail.ru

Blackmores Night - Mondtanz - таба, видео

Печатать
Просмотров: 291
Авторы музыки: Ritchie Blackmore

From: Lidokain vasilenko-a@yandex.ru

Mond Tanz



E||-----------0-----1--0--------|
B||-----0-1-----0-1-------3--1--|
G||---------2-------------------|
D||-----------------------------|
A||--0--------------------------|
E||-----------------------------|



------0--------------|
--3-3----------------|
---------------------|
---------------------|
---------------------|
---------------------|



-----------0-----1-0-1-0-----------|
-----0-1-----0-1----------3-1-3-1--|
---------2-------------------------|
-----------------------------------|
--0--------------------------------|
-----------------------------------|



-----------------------|
----0-1-0--------------|
-----------------------|
-----------------------|
-----------------------|
--0--------------------|



-----------0-----1--0--------|
-----0-1-----0-1-------3--1--|
---------2-------------------|
-----------------------------|
--0--------------------------|
-----------------------------|



-----1--0------------|---------------------------|
---------------------|-----3-1-3-1--0------------|
---------------------|---------------------2--1--|
--0------------------|---------------------------|
---------------------|---------------------------|
---------------------|--0------------------------|



-------------------|--8-7-8-7------7--8--10--|
-------------------|-----------10------------|
--2----------------|--9-----9----------------|
-------------------|-------------------------|
-------------------|-------------------------|
-------------------|-------------------------|



--12--13--12--------|--13--12------------------|
--------------------|----------15--13--12--10--|
--12----------------|--14----------------------|
--------------------|--------------------------|
--------------------|--15----------------------|
--------------------|--------------------------|



----------------|--0--------0---------------10--|
--12------------|--13-12-13-12--10--12--13------|
----------------|-------------------------------|
----------------|-------------------------------|
--0-------------|-------------------------------|
----------------|-------------------------------|



--8--7--5--3--1-0-1-0--|--------0--1--3--|
-----------------------|-----------------|
-----------------------|-----------------|
-----------------------|-----------------|
-----------------------|-----------------|
-----------------------|-----------------|



--1-3-1-0----0--------|-----------0------|
----------3-----3--1--|--0--1--3---------|
----------------------|------------------|
----------------------|------------------|
----------------------|------------------|
----------------------|------------------|



--8-7-8-7------7--8--10--|--12--13--12--------|
-----------10------------|--------------------|
--9-----9----------------|--12----------------|
-------------------------|--------------------|
-------------------------|--------------------|
-------------------------|--------------------|



--13--12------------------|----------------|
----------15--13--12--10--|--12------------|
--14----------------------|----------------|
--------------------------|----------------|
--15----------------------|----------------|
--------------------------|--0-------------|



----------------------10----10-|----------------|
--13--12------12--13-----12----|--12------------|
--14------14-------------------|----------------|
-------------------------------|----------------|
-------------------------------|--10------------|
------------------13-----------|----------------|



--8---7--5--3-3-5----|--1--0--------------------|
---------------------|--------3--1--0--1--3--0--|
---------------------|--------------------------|
---------------------|--0-----------------------|
--10------------0----|--------------------------|
---------------------|--------------3-----------|



--0---0-------------------|
----3---3--1--0-----------|
-----------------2--------|
--------------------------|
--3-----------------------|
-----------------1--------|



--------------------0----|---------------------|
--1--0-----0--1--3--1----|--3------------------|
--------2----------------|-------0----2--------|
-------------------------|---------------------|
--0--------------2--3----|------------0--------|
-------------------------|--3----0-------------|



------------------|------------------|
------------------|------------------|
------------------|------------------|
------------------|------------------|
------------------|------------------|
------------------|------------------|



------------------|------------------|
------------------|------------------|
------------------|------------------|
------------------|------------------|
------------------|------------------|
------------------|------------------|



------------------|------------------|
------------------|------------------|
------------------|------------------|
------------------|------------------|
------------------|------------------|
------------------|------------------|



------------------|------------------|
------------------|------------------|
------------------|------------------|
------------------|------------------|
------------------|------------------|
------------------|------------------|



------------------|------------------|
------------------|------------------|
------------------|------------------|
------------------|------------------|
------------------|------------------|
------------------|------------------|



------------------|------------------|
------------------|------------------|
------------------|------------------|
------------------|------------------|
------------------|------------------|
------------------|------------------|



------------------|----------|------------------|
------------------|----------|------------------|
------------------|----------|------------------|
------------------|----------|------------------|
------------------|----------|------------------|
------------------|----------|------------------|



------------------|------------------------0----|
------------------|--0-1-3-1-0----0--1--3-------|
------------------|------------2----------------|
------------------|-----------------------------|
------------------|--0---------------3----------|
------------------|-----------------------------|



-----------------------------|
--3---1-0---------0----------|
-----------0--0-2---2-0------|
------------------------2----|
--------------0--------------|
--3---------------------0----|



------------------------0----|
--0-1-3-1-0----0--1--3-------|
------------2----------------|
-----------------------------|
--0---------------3--2--3----|
-----------------------------|



---------------------|
--3------------------|
-------0----2--------|
------------2--------|
------------0--------|
--3----0-------------|



------------------------0----|
--0-1-3-1-0----0--1--3-------|
------------2----------------|
-----------------------------|
--0---------------3----------|
-----------------------------|



-----------------------------|
--3---1-0---------0----------|
-----------0--0-2---2-0------|
------------------------2----|
--------------0--------------|
--3---------------------0----|



------------------------0----|
--0-1-3-1-0----0--1--3-------|
------------2----------------|
-----------------------------|
--0---------------3--2--3----|
-----------------------------|



---------------------|--1---0----1--0----------|
--3------------------|--------3--------3--1----|
-------0----2--------|-------------------------|
------------2--------|--0----------------------|
------------0--------|--------------0----------|
--3----0-------------|-------------------------|



-------------------------|
--3---1----3--1----------|
--------3--------3--2----|
-------------------------|
--1----------------------|
--------------1----------|



-----------------------0----|------------|
--0-1-3-1-0----0--1---------|--3---------|
------------2---------------|-------0----|
----------------------------|------------|
--0---------------3----3----|------------|
----------------------------|--3----0----|



--------------------|--------------------|
--------------------|--------------------|
--2--------2--------|--2--------2--------|
--2--------2--------|--2--------2--------|
--0--------0--------|--0--------0--------|
--------------------|--------------------|



--------------------0----|
--1---0----0--1--3-------|
--------2----------------|
-------------------------|
-------------------------|
-------------------------|



--0---0---0------0--------|
------6-6----3-3----------|
--------------------------|
--------------------------|
--------------------------|
--------------------------|



--0---0---0--------------------|
------6-6----4----0---0-----0--|
----------------5---5----3-----|
-------------------------------|
-------------------------------|
-------------------------------|



--------------------------|
--1-0-1-0-----------------|
-----------2--0--2--------|
--------------------------|
--------------------------|
--------------------------|



--------------------0----|
--1---0----0--1--3-------|
--------2----------------|
-------------------------|
-------------------------|
-------------------------|



--0-1-0-1-0-----5------5-7-|
-------------3-------------|
---------------------------|
---------------------------|
---------------------------|
---------------------------|



--8--7-5-7-5--3--1-0-1-0---------|
--------------------------3--1-3-|
---------------------------------|
---------------------------------|
---------------------------------|
---------------------------------|



--0---------------|-------------------|
-----3-0-1-0-1-0--|-------------------|
------------------|--2----------------|
------------------|-------------------|
------------------|-------------------|
------------------|-------------------|



--0--------12--------|
---------------------|
---------------------|
---------------------|
---------------------|
---------------------|



------------------------0----|
--0-1-3-1-0----0--1--3-------|
------------2----------------|
-----------------------------|
--0---------------3----------|
-----------------------------|



-----------------------------|
--3---1-0---------0----------|
-----------0--0-2---2-0------|
------------------------2----|
--------------0--------------|
--3---------------------0----|



------------------------0----|
--0-1-3-1-0----0--1--3-------|
------------2----------------|
-----------------------------|
--0---------------3--2--3----|
-----------------------------|



---------------------|
--3------------------|
-------0----2--------|
------------2--------|
------------0--------|
--3----0-------------|



------------------------0----|
--0-1-3-1-0----0--1--3-------|
------------2----------------|
-----------------------------|
--0---------------3----------|
-----------------------------|



-----------------------------|
--3---1-0---------0----------|
-----------0--0-2---2-0------|
------------------------2----|
--------------0--------------|
--3---------------------0----|



------------------------0----|
--0-1-3-1-0----0--1--3-------|
------------2----------------|
-----------------------------|
--0---------------3--2--3----|
-----------------------------|



---------------------|--1---0----1--0----------|
--3------------------|--------3--------3--1----|
-------0----2--------|-------------------------|
------------2--------|--0----------------------|
------------0--------|--------------0----------|
--3----0-------------|-------------------------|



-------------------------|
--3---1----3--1----------|
--------3--------3--2----|
-------------------------|
--1----------------------|
--------------1----------|



-------------------------|--------0--1--0--------|
-----------------0--2----|--2--3-----------------|
--3---2-0--3--2----------|-----------------------|
-------------------------|-----------------------|
--------------0----------|--0-----------0--------|
--3----------------------|-----------------------|



--------0--1--0--------|
--2--3-----------------|
-----------------------|
-----------------------|
--0-----------0--------|
-----------------------|



--------0--1--4--5--4-----|
--2--3-----------------6--|
--------------------------|
--------------------------|
--------------------------|
--------------------------|



-----------------------|--5--------|
--5--6--5--3--2--------|--5--------|
-----------------------|--6--------|
-----------------------|-----------|
-----------------------|-----------|
-----------------------|-----------|



--0-1-3-1-0----0--1--3--5----|
------------3----------------|
--2--------------------------|
--0--------------------------|
-----------------------------|
-----------------------------|



--3---1-0-------0-1-0--------|
-----------1--3-------3-1----|
------------------------2----|
--------------0--------------|
--3---------------------0----|
-----------------------------|



--0-1-3-1-0----0--1--3--5--3-5-3-5-|
------------3----------------------|
-----------------------------------|
--0--------------------------------|
-----------------------------------|
-----------------------------------|



--3----0-------------|
------------3--------|
---------------------|
------------0--------|
--3----0-------------|
---------------------|



--0-1-3-1-0----0--1--3--5----|
------------3----------------|
--2--------------------------|
--0--------------------------|
-----------------------------|
-----------------------------|



--3---1-0-------0-1-0--------|
-----------1--3-------3-1----|
------------------------2----|
--------------0--------------|
--3---------------------0----|
-----------------------------|



--0-1-3-1-0----0--1--3--5----|--3----0----|
------------3----------------|------------|
-----------------------------|------------|
--0--------------------------|------------|
-----------------------------|--3----0----|
-----------------------------|------------|



--1--------1--------|--1--------1--------|
--3--------3--------|--3--------3--------|
--2--------2--------|--2--------2--------|
--0--------0--------|--0--------0--------|
--------------------|--------------------|
--------------------|--------------------|



------------------------0----|
--0-1-3-1-0----0--1--3-------|
------------2----------------|
-----------------------------|
--0---------------3----------|
-----------------------------|



-----------------------------|
--3---1-0---------0----------|
-----------0--0-2---2-0------|
------------------------2----|
--------------0--------------|
--3---------------------0----|



------------------------0----|
--0-1-3-1-0----0--1--3-------|
------------2----------------|
-----------------------------|
--0---------------3--2--3----|
-----------------------------|



---------------------|
--3------------------|
-------0----2--------|
------------2--------|
------------0--------|
--3----0-------------|



------------------------0----|
--0-1-3-1-0----0--1--3-------|
------------2----------------|
-----------------------------|
--0---------------3----------|
-----------------------------|



-----------------------------|
--3---1-0---------0----------|
-----------0--0-2---2-0------|
------------------------2----|
--------------0--------------|
--3---------------------0----|



------------------------0----|
--0-1-3-1-0----0--1--3-------|
------------2----------------|
-----------------------------|
--0---------------3--2--3----|
-----------------------------|



---------------------|--3---1-0---------------|
--3------------------|-----------1--3---------|
-------0----2--------|-------------------0----|
------------2--------|------------------------|
------------0--------|--3-----------2---------|
--3----0-------------|------------------------|



---------------------------|
--1--0-1-0-------0---------|
-----------2--2-------0----|
---------------------------|
--0------------------------|
-----------------0---------|



------------------------0----|------------------|
--0-1-3-1-0----0--1--3-------|------------------|
------------2----------------|------------------|
-----------------------------|------------------|
--0---------------0--2--3----|------------------|
-----------------------------|------------------|



-----------------0----||
--3--------------1----||
-------0----2----2----||
-----------------2----||
------------0----0----||
--3----0--------------||
Добавлено: 28.05.2012
Другие материалы по этой песне:

Страница создана 14.05.2012
http://primanota.ru/blackmores-night/mondtanz-chords.htm
Привет, Гость.
Предлагаем пройти революционный курс по гитаре.
Подарок от PrimaNota.Ru, забирай!