PrimaNota.ru - самый крупный в мире бесплатный архив песенных текстов, аккордов, табулатур и нот


Blackmores Night - Ancient Sojourn - аккорды и текст, видео

Регистрация Запомнить меня
Войти через:  Facebook Google Twitter Vk Yandex Mail.ru

Blackmores Night - Ancient Sojourn - аккорды и текст, видео

Печатать
Просмотров: 225
Ancient Sojourn
Blackmores Night
~ - legato
 - pull on/off
 
Fm Fm/G Fm/Ab Fm/Bb
Fm Fm/G Fm Cm
Fm Fm/G Fm/Ab Fm/Bb
Fm Fm/G Fm Cm
Fm Fm/Bb Fm
Fm Cm Bb Db-Cm
Fm Cm Bb Db-Cm
Fm Cm Bb Db Cm
Fm Cm Bb Db Cm
Fm Fm/Bbm Fm
Bbm Cm Db Eb Fm Eb-Fm
Db Eb Fm Db Eb Fm

Flute Solo:	I
[E-1----1-3--4-1-4-6---868~3--1--1-3---3-1-----1~3~1------1--1-3---4-1-4-6--868~3--1--1-3---3-1--1~3~1--------
B---------1---------------------------1--------4-----4------------1--------------------------1-----4-----4-------
G----------------------------------------------------------------------------------------------------------------
D----------------------------------------------------------------------------------------------------------------
A----------------------------------------------------------------------------------------------------------------
E----------------------------------------------------------------------------------------------------------------

E-1--------------------1-1---6~4---3-4-3---1-1~4~3-1------------------------4~1-1~4--1-------1~1--4~1~1---1~3~1--------------
B---------1-------------4-------6-6------4--------------1~4--------1---1~2~4---4-----------4-------------4---------1-4----4--
G---0-1-3---3-0-----1-3----------5-------------------1~3-----0~1~3--1~3-----------------0~1---------------------1-3----0~1---.
D--3------------1--3----------------------------------------3--------------------------3------------------------------3------.
A----------------------------------------------------------------------------------------------------------------------------
E----------------------------------------------------------------------------------------------------------------------------

E---------------------------------------------------------------------------------------1~4~1--------- -----1-
B---------------1------------------------------------------1---------4~1~2-----1-----1~4-----1~4~1---- --4-1--
G-----------1~3--3~0-----------1~0------------------------1-3~1~3-----------0~1-3~1~3-----------------.-------
D--------1~3----------------1~3---1---1-------1-----1-1~3------------------3----------------------1~3-.-------
A-1-1~3~4------------1-1~3~4-------3---4~1~3~4-4~3~4-------------------------------------------------- -------
E----------------------------------------------------------------------------------------------------- -------] Part I
Добавлено: 30.12.2013
Другие материалы по этой песне:
  • Аккорды и текст

Страница создана 30.12.2013
http://primanota.ru/blackmores-night/ancient-sojourn-chords.htm
Привет, Гость.
Предлагаем пройти революционный курс по гитаре.
Подарок от PrimaNota.Ru, забирай!