PrimaNota.ru - самый крупный в мире бесплатный архив песенных текстов, аккордов, табулатур и нот


Blackmail - Moonpigs - таба, видео

Регистрация Запомнить меня
Войти через:  Facebook Google Twitter Vk Yandex Mail.ru

Blackmail - Moonpigs - таба, видео

Печатать
Просмотров: 134
-----------------------------------------------------------------
MOONPIGS - Blackmail
-----------------------------------------------------------------
Tabbed by: gorrki1
Email: julianprott@web.de

Tuning: C# G# C# F# A# D#


Intro:

e|---------------------------------------------------------------|
B|---------------------------------------------------------------|
G|5-5-5-5-5-5-5-5-5-5-5-5-7-7-7-7-9-9-9-9-9-9-9-9----------------|
D|x-x-x-x-x-x-x-x-x-x-x-x-x-x-x-x-x-x-x-x-x-x-x-x----------------|
A|3-3-3-3-3-3-3-3-3-3-3-3-5-5-5-5-7-7-7-7-7-7-7-7----------------|
E|---------------------------------------------------------------|

e|---------------------------------------------------------------|
B|---------------------------------------------------------------|
G|12-12-12-12-12-12-12-12----------------------------------------|
D|-x--x--x--x--x--x--x--x-7-7-7-7-7-7-7-7-7-7-7-7-5-5-5-5--------|
A|10-10-10-10-10-10-10-10-x-x-x-x-x-x-x-x-x-x-x-x-x-x-x-x--------|
E|------------------------7-7-7-7-7-7-7-7-7-7-7-7-5-5-5-5--------|

e|---------------------------------------------------------------|
B|---------------------------------------------------------------|
G|5-5-5-5-5-5-5-5—-5/6-------------------------------------------|  1x
D|x-x-x-x-x-x-x-x--x-x-------------------------------------------|
A|3-3-3-3-3-3-3-3—-3/4-------------------------------------------|
E|---------------------------------------------------------------|


Verse 1:                 

e|-----------------|          
B|-----------------|
G|--7-7--5-5-2-2---|  4x
D|--7-7--5-5-2-2---|
A|-----------------|
E|-----------------|


Fill In 1:

e|-------------|
B|-------------|
G|-------------|  1x
D|----3/7\1----|  
A|-------------|
E|-------------|


Verse 2:

e|---------------------------------------------------------------|
B|---------------------------------------------------------------|
G|--7-7--5-5-2-2-------------------------------------------------|  4x
D|--7-7--5-5-2-2--2-2-2--2-2-2-----------------------------------|
A|----------------0-0-0--0-0-0-----------------------------------|
E|---------------------------------------------------------------|


Chorus 1:

e|---------------------------------------------------------------|
B|---------------------------------------------------------------|
G|----------------------------------------------------------9-9-9|
D|3-3-3-3-3-3-3-3-0-0-0-0-0-0-0-0-7-7-7-7-7-7-7-7-7-7-7-7-7-7-7-7|
A|3-3-3-3-3-3-3-3-0-0-0-0-0-0-0-0-7-7-7-7-7-7-7-7-7-7-7-7-7-7-7-7|
E|3-3-3-3-3-3-3-3-0-0-0-0-0-0-0-0-7-7-7-7-7-7-7-7-7-7-7-7-7-7-7-7|

e|---------------------------------------------------------------|
B|---------------------------------------------------------------|
G|---------------------------------------------------------------|  1x
D|3-3-3-3-3-3-3-3-0-0-0-0-0-0-0-0--------------------------------|
A|3-3-3-3-3-3-3-3-0-0-0-0-0-0-0-0--------------------------------|
E|3-3-3-3-3-3-3-3-0-0-0-0-0-0-0-0--------------------------------|


Then: Intro 1x
      
      Verse 1  4x (with some effects)


Chorus 2:

e|---------------------------------------------------------------|
B|---------------------------------------------------------------|
G|5-------5-5-----2-------2-2-----9-9-9-9-9-9-9-9-9-9-9-9-9-9-9-9|  1x
D|3-3-3-3-3-3-3-3-0-0-0-0-0-0-0-0-7-7-7-7-7-7-7-7-7-7-7-7-7-7-7-7|
A|3-3-3-3-3-3-3-3-0-0-0-0-0-0-0-0-7-7-7-7-7-7-7-7-7-7-7-7-7-7-7-7|
E|3-3-3-3-3-3-3-3-0-0-0-0-0-0-0-0-7-7-7-7-7-7-7-7-7-7-7-7-7-7-7-7|


e|---------------------------------------------------------------|
B|---------------------------------------------------------------|
G|5-------5-5-----2-------2-2------------------------------------|
D|3-3-3-3-3-3-3-3-0-0-0-0-0-0-0-0--------------------------------|
A|3-3-3-3-3-3-3-3-0-0-0-0-0-0-0-0--------------------------------|
E|3-3-3-3-3-3-3-3-0-0-0-0-0-0-0-0--------------------------------|


Fill In 2:

e|---------------------------------------------------------------|
B|---------------------------------------------------------------|
G|--9-9-9-9--9-9-9--9--9-9---------------------------------------|  1x
D|--7-7-7-7--7-7-7--7--7-7---------------------------------------|
A|---------------------------------------------------------------|
E|---------------------------------------------------------------|


Then: Intro 2x


Solo:  (fast)

e|---------------------------------------------------------------|
B|13-13-13-13-13-13-15-15-17-17-17-17-13-13-15-15-17-17-17-17----|
G|---------------------------------------------------------------|
D|---------------------------------------------------------------|
A|---------------------------------------------------------------|
E|---------------------------------------------------------------|



e|---------------------------------------------------------------|
B|13-13-15-15-17-17-17-17—19\5-----------------------------------|
G|---------------------------------------------------------------|
D|---------------------------------------------------------------|
A|---------------------------------------------------------------|
E|---------------------------------------------------------------|


e|---------------------------------------------------------------|
B|13-13-13-13-13-13-15-15-17-17-17-17-13-13-15-15-17-17-17-17----|
G|---------------------------------------------------------------|
D|---------------------------------------------------------------|
A|---------------------------------------------------------------|
E|---------------------------------------------------------------|


e|---------------------------------------------------------------|
B|13-13-15-15-17-17-17-17-17/19----------------------------------|
G|---------------------------------------------------------------|  1x
D|---------------------------------------------------------------|
A|---------------------------------------------------------------|
E|---------------------------------------------------------------|


Then: Verse 1  4x (with effects)
       
      Chorus 2  1x


Fill In 3:

e|---------------------------------------------------------------|
B|---------------------------------------------------------------|
G|9-9-9-9-9-9-9-9-9-9-9-9-9-9-9-9-9-9-9-9-9-9-9-9-9-9-9-9-9-9-9-9| 1x
D|---------------------------------------------------------------|
A|---------------------------------------------------------------|
E|---------------------------------------------------------------|
     mute ----> release


Then: Intro 3x

      Solo 2x

      Verse 1  1x






| /  slide up
| \  slide down
| h  hammer-on
| p  pull-off
| ~  vibrato
| +  harmonic
| x  Mute note
Добавлено: 21.05.2012
Другие материалы по этой песне:
  • Аккорды и текст

Страница создана 21.05.2012
http://primanota.ru/blackmail/moonpigs-chords.htm
Привет, Гость.
Предлагаем пройти революционный курс по гитаре.
Подарок от PrimaNota.Ru, забирай!