PrimaNota.ru - самый крупный в мире бесплатный архив песенных текстов, аккордов, табулатур и нот


Blackmail - Club 45 - таба, видео

Регистрация Запомнить меня
Войти через:  Facebook Google Twitter Vk Yandex Mail.ru

Blackmail - Club 45 - таба, видео

Печатать
Просмотров: 102
Уроки эстрадного вокала в Санкт-Петербурге
CLUB 45

Blackmail
http://www.blackmail-music.com
 
6°string--D
 
Verse:
-------------!-------------
-------------!-------------
-------------!-------------
-4--2--0--11-!-9--7--5--8--
-4--2--0--11-!-9--7--5--8--
-4--2--0--11-!-9--7--5--8--
 
chorus:
-------------!-------------------
-------------!-------------------
-------------!-------------------
-4-----2-----!-7----5--4-5-4-5-7-
-4-----2-----!-7----5--4-5-4-5-7-
-4-----2-----!-7----5--4-5-4-5-7-
 
bridge:
--------------------------!--------------------------
--------------------------!--------------------------
--------------------------!--------------------------
-4--4-7-4-7--4--4-4-5-6-7-!-5--5-8-5-8--5--5-8-7-6-5-
--------------------------!--------------------------
--------------------------!--------------------------
 
--------------------------!--------------------------
--------------------------!--------------------------
--------------------------!--------------------------
-4--4-7-4-7--4--4-4-5-6-7-!-5--5-8-5-8--5--5-8-7-6-5-
-4--4-7-4-7--4--4-4-5-6-7-!-5--5-8-5-8--5--5-8-7-6-5-
-4--4-7-4-7--4--4-4-5-6-7-!-5--5-8-5-8--5--5-8-7-6-5-
 
-----!-----
-----!-----
-6---!-4---
-4---!-5---
-4---!-5---
-4---!-5---
 

     
Добавлено: 22.07.2013
Другие материалы по этой песне:
  • Аккорды и текст

Страница создана 22.07.2013
http://primanota.ru/blackmail/club-45-chords.htm
Привет, Гость.
Предлагаем пройти революционный курс по гитаре.
Подарок от PrimaNota.Ru, забирай!