PrimaNota.ru - самый крупный в мире бесплатный архив песенных текстов, аккордов, табулатур и нот


Blacklisted - Good Grief - текст песни, таба, видео

Регистрация Запомнить меня
Войти через:  Facebook Google Twitter Vk Yandex Mail.ru

Blacklisted - Good Grief - текст песни, таба, видео

Печатать
Просмотров: 153
/ - slide
. - palm mute

1.5 Steps Down
Intro x1
Db|---------------------------------------------------------------------------------------|
Ab|---------------------------------------------------------------------------------------|
Fb|---------------------------------------------------------------------------------------|
Cb|-2-4-5-2-------2-4-5-2-------2-4-5-2--2-2-2--2-2-2-2--2-2-2-2--2-4-5-2--4-5-8---2---3--|
Gb|-2-4-5-2-------2-4-5-2-------2-4-5-2--2-2-2--2-2-2-2--2-2-2-2--2-4-5-2--4-5-8---2---3--|
Db|-0-2-3-0---0-0-0-2-3-0---0-0-0-2-3-0--0-0-0--0-0-0-0--0-0-0-0--0-2-3-0--2-3-6-0-0-0-1--|
              . .           . .          . . .    . . .    . . .                 .   .

Verse x1
Db|-------------------------------------------------------------------------------------|
Ab|-------------------------------------------------------------------------------------|
Fb|-------------------------------------------------------------------------------------|
Cb|-2-2-2-2-2--5-5-5-5-5--2-2-2-2-2--3-3-3-3-3--2-2-2-2-2--5-5-5-5-5--8-8-8-8-8--2-4-5--|
Gb|-2-2-2-2-2--5-5-5-5-5--2-2-2-2-2--3-3-3-3-3--2-2-2-2-2--5-5-5-5-5--8-8-8-8-8--2-4-5--|
Db|-0-0-0-0-0--3-3-3-3-3--0-0-0-0-0--1-1-1-1-1--0-0-0-0-0--3-3-3-3-3--6-6-6-6-6--0-2-3--|

Chorus x5
Db|-----------------------------------------|
Ab|-----------------------------------------|
Fb|-----------------------------------------|
Cb|-2-2-2-2-2--4-4-4-4-4--5-5-5-5-5--8-2-3--|
Gb|-2-2-2-2-2--4-4-4-4-4--5-5-5-5-5--8-2-3--|
Db|-0-0-0-0-0--2-2-2-2-2--3-3-3-3-3--6-0-1--|

Fill x1 (you can figure out the palm mutes)
Db|---------------------------------------------------------------------|
Ab|---------------------------------------------------------------------|
Fb|---------------------------------------------------------------------|
Cb|-2-2-2-2-2-2-2-2-2-2-2-2-2-2-2-2--4-4-4-4-4-4-4-4-4-4-4-4-4-4-4-4/5--|
Gb|-2-2-2-2-2-2-2-2-2-2-2-2-2-2-2-2--4-4-4-4-4-4-4-4-4-4-4-4-4-4-4-4/5--|
Db|-0-0-0-0-0-0-0-0-0-0-0-0-0-0-0-0--2-2-2-2-2-2-2-2-2-2-2-2-2-2-2-2/3--|

Chorus x4
Db|-----------------------------------------|----|
Ab|-----------------------------------------|----|
Fb|-----------------------------------------|----|
Cb|-2-2-2-2-2--4-4-4-4-4--5-5-5-5-5--8-2-3--|-2--|
Gb|-2-2-2-2-2--4-4-4-4-4--5-5-5-5-5--8-2-3--|-2--|
Db|-0-0-0-0-0--2-2-2-2-2--3-3-3-3-3--6-0-1--|-0--|

Breakdown x2 (this is off, i'll fix it later)
Db|--------------------------------------------------|--------|
Ab|--------------------------------------------------|--------|
Fb|--------------------------------------5---5/7--9--|--------|
Cb|-2-2-2-2-2-2-2-2-2-2-2-2-2-2-2-2--2-4-5-5-5/7--9--|-2-2-2--|
Gb|-2-2-2-2-2-2-2-2-2-2-2-2-2-2-2-2--2-4-3-5-3/5--7--|-2-2-2--|
Db|-0-0-0-0-0-0-0-0-0-0-0-0-0-0-0-0--0-2---3---------|-0-0-0--|
Добавлено: 12.07.2012
Другие материалы по этой песне:
  • Аккорды и текст

Страница создана 12.07.2012
http://primanota.ru/blacklisted/good-grief-chords.htm
Привет, Гость.
Предлагаем пройти революционный курс по гитаре.
Подарок от PrimaNota.Ru, забирай!