PrimaNota.ru - самый крупный в мире бесплатный архив песенных текстов, аккордов, табулатур и нот


Blacklisted - Eye For An Eye - таба, видео

Регистрация Запомнить меня
Войти через:  Facebook Google Twitter Vk Yandex Mail.ru

Blacklisted - Eye For An Eye - таба, видео

Печатать
Просмотров: 168
Off of their split with First Blood

Its a pretty easy song, mostly power chords.

INTRO and VERSE 1&2 (feedback in back round)
|-----------------------------------------|
|-----------------------------------------|
|-----------------------------------------|
|-----------------------------------------|
|3-3-2-2-2-2-2-2-2-2-5-5-5-8-8-8-8--------|
|1-1-0-0-0-0-0-0-0-0-5-5-5-8-8-8-8--------|


CHORUS
|-----------------------------------------|
|-----------------------------------------|
|-----------------------------------------|
|--------------5--------------------------|
|2-3-2-2-2-2-3-3-5-3-2-3-2-2-2------------|
|0-1-0-0-0-0-1---3-1-0-1-0-0-0------------|

BREAKDOWN
|
|
|
|
|8-2-2-2-2-2-2-2-2-7-2-2-7-2-5-5-5-0-0-0-0-0-0-0-|
|8-0-0-0-0-0-0-0-0-7-0-0-7-0-5-5-5-0-0-0-0-0-0-0-|
Добавлено: 23.02.2012
Другие материалы по этой песне:
  • Аккорды и текст

Страница создана 23.02.2012
http://primanota.ru/blacklisted/eye-for-an-eye-chords.htm
Привет, Гость.
Предлагаем пройти революционный курс по гитаре.
Подарок от PrimaNota.Ru, забирай!