PrimaNota.ru - самый крупный в мире бесплатный архив песенных текстов, аккордов, табулатур и нот


Blacklisted Me - Reportable Romance - таба, видео

Регистрация Запомнить меня
Войти через:  Facebook Google Twitter Vk Yandex Mail.ru

Blacklisted Me - Reportable Romance - таба, видео

Печатать
Просмотров: 87
-----------------------------------------------------------------------------
                              REPORTABLE ROMANCE
-----------------------------------------------------------------------------
Tunning: Standard (E,B,G,D,A,E)
Time: 4/4 (Four Fourths)



INTRO:
E|--------------------------|
B|--------------------------|
G|--------------------------|
D|--------------------------|
A|--------------------------|
E|--------------------------|



VERSE 1:
E|-------------------------|
B|-------------------------|
G|-------------------------|
D|---3-----5-----7-----5---|
A|---1-----3-----5-----3---|
E|---1-----3-----5-----3---|
     DH    F     DH    F
E|-------------------------|
B|-------------------------|
G|-------------------------|
D|---3-----5-----7-----5---|
A|---1-----3-----5-----3---|
E|---1-----3-----5-----3---|
     DH    F     H     H
E|-------------------------|
B|-------------------------|
G|-------------------------|
D|---3-----5-----7---------|
A|---1-----3-----5---------|
E|---1-----3-----5---------|
     DH    F     E      
E|-------------------------|
B|-------------------------|
G|-------------------------|
D|---5-----------3---------|
A|---3-----------1---------|
E|---3-----------1---------|
     E           E




CHORUS:
E|----------------------------------------------------|
B|----------------------------------------------------|
G|----------------------------------------------------|
D|--7--7--7--7--7--7--7--7----10-10-10-10-10-10-10-10-|
A|--5--5--5--5--5--5--5--5----8--8--8--8--8--8--8--8--|
E|--5--5--5--5--5--5--5--5----8--8--8--8--8--8--8--8--|
    (E)                      (E)

E|----------------------------------------------------|
B|----------------------------------------------------|
G|----------------------------------------------------|
D|--5--5--5--5--5--5--5--5----3--3--3--3--5--5--5--5--|
A|--3--3--3--3--3--3--3--3----1--1--1--1--3--3--3--3--|
E|--3--3--3--3--3--3--3--3----1--1--1--1--3--3--3--3--|
   (E)                       (H)         (H)

E|----------------------------------------------------|
B|----------------------------------------------------|
G|----------------------------------------------------|
D|--7--7--7--7--7--7--7--7----10-10-10-10-10-10-10-10-|
A|--5--5--5--5--5--5--5--5----8--8--8--8--8--8--8--8--|
E|--5--5--5--5--5--5--5--5----8--8--8--8--8--8--8--8--|
    (E)                      (E)

E|----------------------------------------------------|
B|----------------------------------------------------|
G|----------------------------------------------------|
D|--5--5--5--5--5--5--5--5----3--3--3--3--5-----------|
A|--3--3--3--3--3--3--3--3----1--1--1--1--3-----------|
E|--3--3--3--3--3--3--3--3----1--1--1--1--3-----------|
   (E)                       (H)         (H)




VERSE 2:
E|-------------------------|
B|-------------------------|
G|-------------------------|
D|---3-----5-----7-----5---|
A|---1-----3-----5-----3---|
E|---1-----3-----5-----3---|
     DH    F     DH    F
E|-------------------------|
B|-------------------------|
G|-------------------------|
D|---3-----5-----7-----5---|
A|---1-----3-----5-----3---|
E|---1-----3-----5-----3---|
     DH    F     H     H
E|-------------------------|
B|-------------------------|
G|-------------------------|
D|---3-----5-----7---------|
A|---1-----3-----5---------|
E|---1-----3-----5---------|
     DH    F     E      
E|-------------------------|
B|-------------------------|
G|-------------------------|
D|---5----3-3-3-3-3-3-3-3--|
A|---3----1-1-1-1-1-1-1-1--|
E|---3----1-1-1-1-1-1-1-1--|
     E    E




CHORUS:
(1ST TIME)
E|----------------------------------------------------|
B|----------------------------------------------------|
G|----------------------------------------------------|
D|--7--7--7--7--7--7--7--7----10-10-10-10-10-10-10-10-|
A|--5--5--5--5--5--5--5--5----8--8--8--8--8--8--8--8--|
E|--5--5--5--5--5--5--5--5----8--8--8--8--8--8--8--8--|
    (E)                      (E)

E|----------------------------------------------------|
B|----------------------------------------------------|
G|----------------------------------------------------|
D|--5--5--5--5--5--5--5--5----3--3--3--3--5--5--5--5--|
A|--3--3--3--3--3--3--3--3----1--1--1--1--3--3--3--3--|
E|--3--3--3--3--3--3--3--3----1--1--1--1--3--3--3--3--|
   (E)                       (H)         (H)

E|----------------------------------------------------|
B|----------------------------------------------------|
G|----------------------------------------------------|
D|--7--7--7--7--7--7--7--7----10-10-10-10-10-10-10-10-|
A|--5--5--5--5--5--5--5--5----8--8--8--8--8--8--8--8--|
E|--5--5--5--5--5--5--5--5----8--8--8--8--8--8--8--8--|
    (E)                      (E)

E|----------------------------------------------------|
B|----------------------------------------------------|
G|----------------------------------------------------|
D|--5--5--5--5--5--5--5--5----3--3--3--3--5-5-5-5-5---|
A|--3--3--3--3--3--3--3--3----1--1--1--1--3-3-3-3-3---|
E|--3--3--3--3--3--3--3--3----1--1--1--1--3-3-3-3-3---|
   (E)                       (H)         (H)



(2ND TIME)
E|----------------------------------------------------|
B|----------------------------------------------------|
G|----------------------------------------------------|
D|--7--7--7--7--7--7--7--7----10-10-10-10-10-10-10-10-|
A|--5--5--5--5--5--5--5--5----8--8--8--8--8--8--8--8--|
E|--5--5--5--5--5--5--5--5----8--8--8--8--8--8--8--8--|
    (E)                      (E)

E|----------------------------------------------------|
B|----------------------------------------------------|
G|----------------------------------------------------|
D|--5--5--5--5--5--5--5--5----3--3--3--3--5--5--5--5--|
A|--3--3--3--3--3--3--3--3----1--1--1--1--3--3--3--3--|
E|--3--3--3--3--3--3--3--3----1--1--1--1--3--3--3--3--|
   (E)                       (H)         (H)

E|----------------------------------------------------|
B|----------------------------------------------------|
G|----------------------------------------------------|
D|--7--7--7--7--7--7--7--7----10-10-10-10-10-10-10-10-|
A|--5--5--5--5--5--5--5--5----8--8--8--8--8--8--8--8--|
E|--5--5--5--5--5--5--5--5----8--8--8--8--8--8--8--8--|
    (E)                      (E)

E|----------------------------------------------------|
B|----------------------------------------------------|
G|----------------------------------------------------|
D|--5--5--5--5--5--5--5--5----3--3--3--3--5-5-5-5-----|
A|--3--3--3--3--3--3--3--3----1--1--1--1--3-3-3-3-----|
E|--3--3--3--3--3--3--3--3----1--1--1--1--3-3-3-3-----|
   (E)                       (H)         (H)





BRIDGE:
1ST PART: -
2ND PART:
E|----------------------------------------------------|
B|----------------------------------------------------|
G|----------------------------------------------------|
D|--7--7--7--7--7--7--7--7----10-10-10-10-10-10-10-10-|
A|--5--5--5--5--5--5--5--5----8--8--8--8--8--8--8--8--|
E|--5--5--5--5--5--5--5--5----8--8--8--8--8--8--8--8--|
    (E)                      (E)

E|----------------------------------------------------|
B|----------------------------------------------------|
G|----------------------------------------------------|
D|--5--5--5--5--5--5--5--5----3--3--3--3--5--5--5--5--|
A|--3--3--3--3--3--3--3--3----1--1--1--1--3--3--3--3--|
E|--3--3--3--3--3--3--3--3----1--1--1--1--3--3--3--3--|
   (E)                       (H)         (H)

E|----------------------------------------------------|
B|----------------------------------------------------|
G|----------------------------------------------------|
D|--7--7--7--7--7--7--7--7----10-10-10-10-10-10-10-10-|
A|--5--5--5--5--5--5--5--5----8--8--8--8--8--8--8--8--|
E|--5--5--5--5--5--5--5--5----8--8--8--8--8--8--8--8--|
    (E)                      (E)

E|----------------------------------------------------|
B|----------------------------------------------------|
G|----------------------------------------------------|
D|--5--5--5--5--5--5--5--5----3--3--3--3--5-5-5-5-5---|
A|--3--3--3--3--3--3--3--3----1--1--1--1--3-3-3-3-3---|
E|--3--3--3--3--3--3--3--3----1--1--1--1--3-3-3-3-3---|
   (E)                       (H)         (H)



CHORUS:
E|----------------------------------------------------|
B|----------------------------------------------------|
G|----------------------------------------------------|
D|--7--7--7--7--7--7--7--7----10-10-10-10-10-10-10-10-|
A|--5--5--5--5--5--5--5--5----8--8--8--8--8--8--8--8--|
E|--5--5--5--5--5--5--5--5----8--8--8--8--8--8--8--8--|
    (E)                      (E)

E|----------------------------------------------------|
B|----------------------------------------------------|
G|----------------------------------------------------|
D|--5--5--5--5--5--5--5--5----3--3--3--3--5--5--5--5--|
A|--3--3--3--3--3--3--3--3----1--1--1--1--3--3--3--3--|
E|--3--3--3--3--3--3--3--3----1--1--1--1--3--3--3--3--|
   (E)                       (H)         (H)

E|----------------------------------------------------|
B|----------------------------------------------------|
G|----------------------------------------------------|
D|--7--7--7--7--7--7--7--7----10-10-10-10-10-10-10-10-|
A|--5--5--5--5--5--5--5--5----8--8--8--8--8--8--8--8--|
E|--5--5--5--5--5--5--5--5----8--8--8--8--8--8--8--8--|
    (E)                      (E)

E|----------------------------------------------------|
B|----------------------------------------------------|
G|----------------------------------------------------|
D|--5--5--5--5--5--5--5--5----3--3--3--3--5-5-5-5-5---|
A|--3--3--3--3--3--3--3--3----1--1--1--1--3-3-3-3-3---|
E|--3--3--3--3--3--3--3--3----1--1--1--1--3-3-3-3-3---|
   (E)                       (H)         (H)

OUTRO:
E|--------------------------|
B|--------------------------|
G|--------------------------|
D|---7----------------------|
A|---5----------------------|
E|---5----------------------|
    (E)




---------------------
TIME - NOTES
---------------------
DH       Dotted half
F        Fourth
H        Half
E        Entire
---------------------
Добавлено: 03.08.2013
Вам также может быть интересно:
Другие материалы по этой песне:
  • Аккорды и текст

Страница создана 03.08.2013
http://primanota.ru/blacklisted-me/reportable-romance-chords.htm
Привет, Гость.
Предлагаем пройти революционный курс по гитаре.
Подарок от PrimaNota.Ru, забирай!