PrimaNota.ru - самый крупный в мире бесплатный архив песенных текстов, аккордов, табулатур и нот


Blackhole - Dont Cry - таба, видео

Регистрация Запомнить меня
Войти через:  Facebook Google Twitter Vk Yandex Mail.ru

Blackhole - Dont Cry - таба, видео

Печатать
Просмотров: 132
-------------------------------------------------------------------------------
                             DON'T CRY - Blackhole
-------------------------------------------------------------------------------
Tabbed by:Sherman Leung
Email:yayanime@hotmai.com       

Tuning: Dropped D 

Don't cry if it's not very clear, read it while listening to the song and you'll see what I mean.

                                     ________      ___________
                                          .1|              .2|
e|--------------------------------|---------|----------------|---------|
B|O-------------------------------|---------|-------------5+~|--------O|
G|-----10b-----7------------------|-5-------|-------------5+~|---------|
D|-----x--0----x---0---5---8--7--3|-x--3--5-|-0-3-6-5-3-0----|---------|
A|O----8b-0----5---0---5---8--7--3|-3--3--5-|-0-3-6-5-3-0----|--------O|
E|--------0--------0---5---8--7--3|----3--5-|-0-3-6-5-3-0----|---------|
P.M.                                          . . . . . .



e|-------------------0~-----------------------------------------------------|
B|-------------------0~-----------------------------------------------------|
G|-------------------0~-----------------------------------------------------|
D|--0-3-0-3-6-5-3-0-----0-3-0-3-6-5-3-0-------------------------------------|
A|--0-3-0-3-6-5-3-0-----0-3-0-3-6-5-3-0-------------------------------------|
E|--0-3-0-3-6-5-3-0-----0-3-0-3-6-5-3-0-------------------------------------|
P.M.. . . . . . . .     . . . . . . . .



e|--------------------------------------------------------------------------|
B|--------------------------------------------------------------------------|
G|--------------------------------------------------------------------------|
D|---------------3-3-6-5--------------3-------------------------------------|
A|--------------5-5-----5------------5-5-3-5--------------------------------|
E|---3b-0-2b-0-------------3b-0-2b-0----------------------------------------|
P.M.    .    .                .    .


e|-------------------------------------------------------------------------|
B|-------------------------------------------------------------------------|
G|-3---------6---6---6----6/7----------------------------------------------|
D|-3--3----0-x-0-x-0-x-0--x-x----------------------------------------------|
A|-1--3----0-4-0-4-0-4-0--4/5----------------------------------------------|
E|----3----0---0---0---0---------------------------------------------------|



Solo not clear. mess around with the A# blues scale starting with a g# and it's pretty much near. 



************************************

| /   slide up
| \   slide down
| h   hammer-on
| p   pull-off
| ~   vibrato
| +   harmonic
| x   Mute note
| b   Bend
| pb  Pre-bend
| br  Bend release
| pbr Pre-bend release
| brb Bend release bend

************************************
Добавлено: 13.06.2012
Другие материалы по этой песне:

Страница создана 30.04.2012
http://primanota.ru/blackhole/dont-cry-chords.htm
Привет, Гость.
Предлагаем пройти революционный курс по гитаре.
Подарок от PrimaNota.Ru, забирай!