PrimaNota.ru - самый крупный в мире бесплатный архив песенных текстов, аккордов, табулатур и нот


Blackfoot - Try A Little Harder - таба, видео

Регистрация Запомнить меня
Войти через:  Facebook Google Twitter Vk Yandex Mail.ru

Blackfoot - Try A Little Harder - таба, видео

Печатать
Просмотров: 111
-----------------------------------------------------------------------------
1.                           Try A Little Harder - Blackfoot
2.                             Flyin' High-1976
3.              Words and Music Rick Medlocke and Jakson Spires
-----------------------------------------------------------------------------
Tabbed by: Duane Baldwin
E-mail: duaneandjulie@gmail.com

Tuning: Half Step down

Guitar I (Clean tone)

Intro

  L.R.--------------------------------------------|

e|-----2--------2--------2-----2--------0-----2-----|
B|--------3--------3--------------3--------------3--|
G|-----------2--------2--------------2-----2--------|
D|--0-----------------------0-----------------------|
A|--------------------------------------------------|
E|--------------------------------------------------|

  L.R.--------------------------------------------|

e|-----3--------3--------3-----3--------2-----3-----|
B|--------3--------3--------------3--------------3--|
G|-----------2--------2--------------2-----2--------|
D|--0-----------------------0-----------------------|
A|--------------------------------------------------|
E|--------------------------------------------------|

  L.R.--------------------------------------------|

e|-----5--------5--------5-----5--------5--------5--|
B|--------3--------3--------------3--------3--------|
G|-----------2--------2--------------2--------2-----|
D|--0-----------------------0-----------------------|
A|--------------------------------------------------|
E|--------------------------------------------------|

  L.R.--------------------------------------------|

e|-----8--------8--------8-----8--------8--------8--|
B|--------6--------6--------------6--------6--------|
G|-----------5--------5--------------5--------5-----|
D|--0-----------------------0-----------------------|
A|--------------------------------------------------|
E|--------------------------------------------------|


  L.R.-------------------------------------------|

e|-----7--------7--------7--7--------7--------7--|
B|--------5--------5-----------5--------5--------|
G|-----------4--------4-----------4--------4-----|
D|--0--------------------------------------------|
A|-----------------------------------------------|
E|-----------------------------------------------|

  L.R.--------------------------------------------|

e|-----6--------6--------6-----6--------6--------6--|
B|--------4--------4--------------4--------4--------|
G|-----------3--------3--------------3--------3-----|
D|--0-----------------------0-----------------------|
A|--------------------------------------------------|
E|--------------------------------------------------|


(Over Driven tone)

  Let Ring ---------------|
e|--5--5--------5--------5--------------------------|
B|--3-----3--------3--------------------------------|
G|--2--------2--------2--------0-----0-----0-----0--|
D|--0-----------------------------------------------|
A|--------------------------3-----2-----------------|
E|--------------------------------------3-----2-----|

                                    Let Ring -------------|
e|--2--------------------------|--2-----------------------|
B|--3--------------------------|--3-----------------------|
G|--2-----0-----0-----0-----0--|--2-----0--------0--------|
D|--0--------------------------|--0--------0--------0-----|
A|-----3-----2-----------------|-----3--------2-----------|
E|-----------------3-----2-----|-----------------------3--|

                                      Intro Solo     Let Ring ----|
e|---------------------------------|--2---2-----------------------|
B|------3---3---3---2---2---3------|--3---3-----------------------|
G|--2---2---2---2---2---2---2---2--|--2---2-----------0-----0-----|
D|--2---2---2---2---2---2---2---2--|--0---0-----------------------|
A|--0---------------0---0-------0--|---------0--2--3-----2--------|
E|---------------------------------|---------------------------3--|

                            Let Ring -------|
e|---------------------|--2-----------------|--------------------------|
B|------3---3----------|--3-----------------|------3---3---3---2---2---|
G|--2---2---2---2---2--|--2-----0-----0-----|--2---2---2---2---2---2---|
D|--2---2---2---2---2--|--0-----------------|--2---2---2---2---2---2---|
A|--0-----------0---0--|-----3-----2--------|--0---------------0---0---|
E|---------------------|-----------------3--|--------------------------|


1st Verse ( Clean Tone)

  L.R.----------------------------------------------------------------|

e|--------------------------------|------------------------------------------|
B|-----------3--------------------|-----------3-----3--2--------2------------|
G|--------0-----0--------0-----0--|--------2-----2--------2--------2---------|
D|-----2--------2-----2-----------|-----2--------------------2--------2------|
A|--3--------------2--------------|--0-----------------------------------0--2|
E|--------------------------3-----|------------------------------------------|

  L.R.---------------------------------------------------------------|

e|---------------------------------|-----------------------------------------|
B|----------3----------------------|----------3-----3--2-------2-------------|
G|-------0-----0--------0--------0-|-------2-----2--------2-------2----------|
D|----2--------------2--------0----|----2----------------------------2-------|
A|-3--------------2----------------|-0----------------------------------0--2-|
E|-------------------------3-------|-----------------------------------------|

  L.R.-----------------------------------------------------------------|

e|----------------------------------|----------------------------------------|
B|----------3-----------------------|----------3p2-------2-------2-----------|
G|-------0-----0----------0-------0-|-------2-------2-------2-------2--------|
D|----2-----------0-----0------0----|----2-------------2-------2-------2-----|
A|-3-----------------2--------------|-0-----------------------------------2-0|
E|--------------------------3-------|----------------------------------------|

  L.R.--------------------------------------------------------------|

e|----------------------------------|---------------------------------|
B|----------3-----------------------|----------3--2-----3--2-----3p2--|
G|-------0-----0----------0-------0-|-------2--------2--------2--2-2--|
D|----2-----------0-----0------0----|----2----------------------------|
A|-3-----------------2--------------|-0-------------------------------|
E|--------------------------3-------|---------------------------------|

1st Pre Chorus( Overdriven)

                Let Ring ------|

e|--2---2-----------------------|---------------------|
B|--3---3-----------------------|------3---2---2---2--|
G|--2---2-----------0-----0-----|--2---2---2---2---2--|
D|--0---0-----------------------|--2---2---2---2---2--|
A|---------0--2--3-----2--------|--0-------0---0---0--|
E|---------------------------3--|---------------------|

                  L.R.-----------|

e|--2-----------------------------|---------------------------------|
B|--3--3--------------------------|------3---3---3------------------|
G|--2-----2-----------0-----0-----|--2---2---2---2---2---2---2---2--|
D|--0-----------------------------|--2---2---2---2---2---2---2---2--|
A|-----------0--2--3-----2--------|--0---------------0---0---0---0--|
E|-----------------------------3--|---------------------------------|

                Let Ring ------|     L.R.-----------------------------------|

e|--2---2-----------------------|--------------------------------------------|
B|--3---3-----------------------|-----2--------2--------2--------2--------2--|
G|--2---2-----------0-----0-----|--2-----2--------2--------2--------2--------|
D|--0---0-----------------------|--2--------2--------2--------2--------2-----|
A|---------0--2--3-----2--------|--0-----------------------------------------|
E|---------------------------3--|--------------------------------------------|


                Let Ring ----------------------------|

e|--2---2-----------------------|---------------------------|
B|--3---3-----------------------|-----3--------3---------2--|
G|--2---2-----------0-----0-----|--------2--------2------2--|
D|--0---0-----------------------|-----------2--------2---2--|
A|---------0--2--3-----2--------|--0---------------------0--|
E|---------------------------3--|---------------------------|

2nd Verse (Clean Tone)

  L.R.--------------------------------------------|

e|--------------0-----------------------------------|
B|-----------1-----1-----------------1-----------1--|
G|--------0-----------0-----------0-----------0-----|
D|-----2-----------------2-----0-----------0--------|
A|--3-----------------------2-----------------------|
E|--------------------------------------3-----------|

  L.R.----------------------------|

e|--------------------------------|
B|-----------3--2--------2--------|
G|--------0--------2--------2-----|
D|-----2--------------2--------2--|
A|--0-----------------------------|
E|--------------------------------|

  L.R.--------------------------------------------|

e|--------------0-----------------------------------|
B|-----------1-----1-----------------1-----------1--|
G|--------0-----------0-----------0-----------0-----|
D|-----2-----------------2-----0-----------0--------|
A|--3-----------------------2-----------------------|
E|--------------------------------------3-----------|

  L.R.----------------------------|

e|--------------------------------|
B|-----------3--2--------2--------|
G|--------0--------2--------2-----|
D|-----2--------------2--------2--|
A|--0-----------------------------|
E|--------------------------------|

  L.R.--------------------------------------------|

e|--------------0-----------------------------------|
B|-----------1-----1-----------------1-----------1--|
G|--------0-----------0-----------0-----------0-----|
D|-----2-----------------2-----0-----------0--------|
A|--3-----------------------2-----------------------|
E|--------------------------------------3-----------|

  L.R.----------------------------|

e|--------------------------------|
B|-----------3--2--------2--------|
G|--------0--------2--------2-----|
D|-----2--------------2--------2--|
A|--0-----------------------------|
E|--------------------------------|

  L.R.--------------------------------------------|

e|--------------0-----------------------------------|
B|-----------1-----1-----------------1-----------1--|
G|--------0-----------0-----------0-----------0-----|
D|-----2-----------------2-----0-----------0--------|
A|--3-----------------------2-----------------------|
E|--------------------------------------3-----------|

  L.R.----------------------------|

e|--------------------------------|
B|-----------3--2--------2--------|
G|--------0--------2--------2-----|
D|-----2--------------2--------2--|
A|--0-----------------------------|
E|--------------------------------|

1st Chorus

  L.R.----------------------------------------|

e|-----------3--------------------3-----------|
B|--------3-----3--------------3-----3--------|
G|-----0-----------0--------0-----------0-----|
D|--------------------0--------------------0--|
A|--3--------------------2--------------------|
E|--------------------------------------------|

  L.R.----------------------------------------|

e|-----------3--------------------3-----------|
B|--------3-----3--------------3-----3--------|
G|-----0-----------0--------0-----------------|
D|--------------------0-----------------------|
A|--------------------------------------0--2--|
E|--3--------------------2--------------------|



  L.R.----------------------------------------|

e|-----------3--------------------3-----------|
B|--------3-----3--------------3-----3--------|
G|-----0-----------0--------0-----------0-----|
D|--------------------0--------------------0--|
A|--3--------------------2--------------------|
E|--------------------------------------------|

  L.R.---------------------------------------|

e|-----------3--------------------3-----------|
B|--------3-----3--------------3-----3--------|
G|-----0-----------0--------0-----------------|
D|--------------------0-----------------------|
A|--------------------------------------0--2--|
E|--3--------------------2--------------------|

  L.R.---------------------------------------|

e|-----------3--------------------3-----------|
B|--------3-----3--------------3-----3--------|
G|-----0-----------0--------0-----------0-----|
D|--------------------0--------------------0--|
A|--3--------------------2--------------------|
E|--------------------------------------------|

  L.R.----------------------------------------|

e|-----------3--------------------3-----------|
B|--------3-----3--------------3-----3--------|
G|-----0-----------0--------0-----------------|
D|--------------------0-----------------------|
A|--------------------------------------0--2--|
E|--3--------------------2--------------------|

  L.R.----------------------------------------|


e|-----------3--------------------3-----------|
B|--------3-----3--------------3-----3--------|
G|-----0-----------0--------0-----------0-----|
D|--------------------0--------------------0--|
A|--3--------------------2--------------------|
E|--------------------------------------------|

(Over Driven)

e|--3---3-----------------|----------------------|
B|--3---3-----------------|----------------------|
G|--0---0--------------0--|--2---2---2---2---2---|
D|--0---0--------0--2--0--|--2---2---2---2---2---|
A|--2---2---1/2-----------|--0---0---0---0---0---|
E|--3---3-----------------|----------------------|

Bridge (Clean Tone)


  L.R.--------------------------------------------|

e|--------------8--------8-----8--------8--------8--|
B|-----6-----------6--6-----6-----6--------6--------|
G|--5-----5--5-----------------------5--------5-----|
D|--0-----------------------------------------------|
A|--------------------------------------------------|
E|--------------------------------------------------|

  L.R.--------------------------------------------|

e|-----7--------7--------7-----7--------7--------7--|
B|--------5--------5--------------5--------5--------|
G|--4--------4--------4--------------4--------4-----|
D|--0-----------------------0-----------------------|
A|--------------------------------------------------|
E|--------------------------------------------------|

  L.R.--------------------------------------------|

e|-----6--------6--------6--6--------6--------6--|
B|--------4--------4-----------4--------4--------|
G|--3--------3--------3-----------3--------4-----|
D|--0--------------------------------------------|
A|-----------------------------------------------|
E|-----------------------------------------------|

(Over Driven)

Intro Reprise

  L.R.--------------|

e|-----5--------5--------------------------------|
B|--------3--------3-----------------------------|
G|--2--------2--------2-----0-----0-----0-----0--|
D|--0-----------------0--------------------------|
A|-----------------------3-----2-----------------|
E|-----------------------------------3-----2-----|

                                    Let Ring -------------|

e|--2--------------------------|--2-----------------------|
B|--3--------------------------|--3-----------------------|
G|--2-----0-----0-----0-----0--|--2-----0--------0--------|
D|--0--------------------------|--0--------0--------0-----|
A|-----3-----2-----------------|-----3--------2-----------|
E|-----------------3-----2-----|-----------------------3--|

e|---------------------------------------|
B|------3---3---3---2---2---3------------|
G|--2---2---2---2---2---2---2---2--------|
D|--2---2---2---2---2---2---2---2--0--2--|
A|--0---------------0---0-------0--------|
E|---------------------------------------|

3rd Verse  

  L.R.------------------------------------------|     L.R.-----------------|

e|-----------2-----------------------------------|-----5--------5--------5--|
B|--------3-----3-----------3--------3-----------|--2-----2--------2--------|
G|-----2-----------2-----------0--------0-----0--|--2--------2--------2-----|
D|--0-----------------0--------------------------|--2-----------------------|
A|-----------------------3--------2--------------|--0-----------------------|
E|-----------------------------------------3-----|--------------------------|

  L.R.------------------------------------------|

e|-----------2-----------------------------------|--------------------------|
B|--------3-----3-----------3--------3-----------|--2--3--3--3--------------|
G|-----2-----------2-----------0--------0-----0--|--2--2--2--2--2--2--2--2--|
D|--0-----------------0--------------------------|--2--2--2--2--2--2--2--2--|
A|-----------------------3--------2--------------|--0-----------0--0--0--0--|
E|-----------------------------------------3-----|--------------------------|

  L.R.------------------------------------------|

e|-----------2-----------------------------------|
B|--------3-----3-----------3--------3-----------|
G|-----2-----------2-----------0--------0-----0--|
D|--0-----------------0--------------------------|
A|-----------------------3--------2--------------|
E|-----------------------------------------3-----|

     L.R.----------------------------|

e|-----------------------------------|
B|-----3--2-----2--------2--------2--|
G|--2--------2-----2--------2--------|
D|--2-----------------2--------2-----|
A|--0--------------------------------|
E|-----------------------------------|

  L.R.-----------------------------------------|      L.R.---------------|

e|-----------2-----------------------------------|---------------------------|
B|--------3-----3-----------3--------3-----------|-----3--------3-----3-----2|
G|-----2-----------2-----------0--------0-----0--|--2-----2--------2-----2--2|
D|--0-----------------0--------------------------|--2--------2--------------2|
A|-----------------------3--------2--------------|--0-----------------------0|
E|-----------------------------------------3-----|---------------------------|

2nd Chorus (Clean Tone)

  L.R.----------------------------------|

e|--------------------------------------|
B|-----------3-----------------3--------|
G|--------0-----0-----------0-----0-----|
D|-----2-----------2-----0-----------0--|
A|--3-----------------2-----------------|
E|--------------------------------------|

  L.R.----------------------------------------|

e|-----------3--------------------3-----------|
B|--------3-----3--------------3-----3--------|
G|-----0-----------0--------0-----------------|
D|--------------------------------------------|
A|--------------------------------------0--2--|
E|--3-----------------2-----------------------|

  L.R.----------------------------------|

e|--------------------------------------|
B|-----------3-----------------3--------|
G|--------0-----0-----------0-----0-----|
D|-----2-----------2-----0-----------0--|
A|--3-----------------2-----------------|
E|--------------------------------------|

  L.R.---------------------------------|

e|-----------3--------------------3-----------|
B|--------3-----3--------------3-----3--------|
G|-----0-----------0--------0-----------------|
D|--------------------------------------------|
A|--------------------------------------0--2--|
E|--3-----------------2-----------------------|

  L.R.----------------------------------|

e|--------------------------------------|
B|-----------3-----------------3--------|
G|--------0-----0-----------0-----0-----|
D|-----2-----------2-----0-----------0--|
A|--3-----------------2-----------------|
E|--------------------------------------|

  L.R.----------------------------------------|

e|-----------3--------------------3-----------|
B|--------3-----3--------------3-----3--------|
G|-----0-----------0--------0-----------------|
D|--------------------------------------------|
A|--------------------------------------0--2--|
E|--3-----------------2-----------------------|

  L.R.----------------------------------|

e|--------------------------------------|
B|-----------3-----------------3--------|
G|--------0-----0-----------0-----0-----|
D|-----2-----------2-----0-----------0--|
A|--3-----------------2-----------------|
E|--------------------------------------|

(Over Driven)

e|--3---3-----------------3--|----------------------------------------|
B|--3---3-----------------3--|----------------------------------------|
G|--0---0--------------0--0--|--2---2---2---2---2--2---2---2---2------|
D|--0---0--------0--2--0--0--|--2---2---2---2---2--2---2---2---2---2--|
A|--2---2---1/2-----------2--|--0---0---0---0---0--0---0---0---0------|
E|--3---3-----------------3--|----------------------------------------|

Outro
                   L.R.-------|

e|--2---2-----------------------|---------------------|
B|--3---3-----------------------|------3---3---2---2--|
G|--2---2-----------0-----0-----|--2---2---2---2---2--|
D|--0---0-----------------------|--2---2---2---2---2--|
A|---------0--2--3-----2--------|--0-----------0---0--|
E|---------------------------3--|---------------------|

                    L.R.-------|

e|--2-----------------------------|---------------------------|
B|--3--3--------------------------|---------------------------|
G|--2-----2-----------0-----0-----|--2---2--------------------|
D|--0-----------------------------|--2---2--------------------|
A|-----------0--2--3-----2--------|--0---0---2b---0---2b---0--|
E|-----------------------------3--|---------------------------|

                  L.R.-------|

e|--2---2-----------------------|-------------------------|
B|--3---3-----------------------|-------------------------|
G|--2---2-----------0-----0-----|--2---2---2---2---2---2--|
D|--0---0-----------------------|--2---2---2---2---2---2--|
A|---------0--2--3-----2--------|--0---0---0---0---0---0--|
E|---------------------------3--|-------------------------|

                   L.R.-------|

e|--2---2-----------------------|-------------------------|
B|--3---3-----------------------|-------------------------|
G|--2---2-----------0-----0-----|--2---2---2---2---2---2--|
D|--0---0-----------------------|--2---2---2---2---2---2--|
A|---------0--2--3-----2--------|--0---0---0---0---0---0--|
E|---------------------------3--|-------------------------|

                    L.R.-------|

e|--2-----------------------------|-----------------------------|
B|--3--3--------------------------|------3---3---3--------------|
G|--2-----2-----------0-----0-----|--2---2---2---2---2---2---2--|
D|--0-----------------------------|--2---2---2---2---2---2---2--|
A|-----------0--2--3-----2--------|--0---------------0---0---0--|
E|-----------------------------3--|-----------------------------|

                    L.R.-------|

e|--2-----------------------------|-----------------------------|
B|--3--3--------------------------|------3---3---3--------------|
G|--2-----2-----------0-----0-----|--2---2---2---2---2---2---2--|
D|--0-----------------------------|--2---2---2---2---2---2---2--|
A|-----------0--2--3-----2--------|--0---------------0---0---0--|
E|-----------------------------3--|-----------------------------|

                     L.R.-------|
                                             Fade out
e|--2-----------------------------|-----------------------------|
B|--3--3--------------------------|------3---3---3--------------|
G|--2-----2-----------0-----0-----|--2---2---2---2---2---2---2--|
D|--0-----------------------------|--2---2---2---2---2---2---2--|
A|-----------0--2--3-----2--------|--0---------------0---0---0--|
E|-----------------------------3--|-----------------------------|

Guitar II ( Clean Tone)

Intro

                                      L.R.----------------------|

e|-----------|-----------|-----------|-----------5--------5-----|
B|-----------|-----------|-----------|--6-----------6--------6--|
G|-----------|-----------|-----------|-----5--5--------5--------|
D|-----------|-----------|-----------|--------------------------|
A|-----------|-----------|-----------|--------------------------|
E|-----------|-----------|-----------|--------------------------|

L.R.------------------------------------------------------|

e|-----4--------4--------4-----|--------------4--------3--|
B|--------5--------5--------5--|-----4--4--------3--------|
G|-----------4--------4--------|-----------3--------4-----|
D|--0--------------------------|--0-----------------------|
A|-----------------------------|--------------------------|
E|-----------------------------|--------------------------|

(Over Driven)

e|--------2---2--------------------|--2------------------|
B|--3-3---3---3--------------------|--3---2--------------|
G|--0h2---2---2--2-----0-----------|--2---3--------------|
D|--------0---0--------------------|--0---0--------------|
A|------------------3-----2--------|---------3--2--------|
E|---------------------------3--2--|---------------3--2--|

e|--2--------------------|---------------------------------|
B|--3--3-----3-----3-----|------3---3---3------------------|
G|--2--------0-----0-----|--2---2---2---2---2---2---2------|
D|--0--------0-----0-----|--2---------------2---2---2------|
A|--------3-----2--------|--0---------------0---0---0------|
E|--------------------3--|---------------------------------|

Intro Solo

                  L.R.-------|

e|-------------------------------|-------------------------------------|
B|--3--3--3----3-----------------|-------------------------------------|
G|--2--2--0h2--2-----0-----0-----|--2-------------2--4-----2-----------|
D|--0----------0-----------------|--2-------2--4--2-----4-----4--2-----|
A|----------------3-----2--------|--0--2/4--------0-----------------4--|
E|----------------------------3--|-------------------------------------|

                 L.R.-------|

e|--2---------------------------|----------------------|
B|--3---3-----------------------|------3---3-----------|
G|--2---2-----------0-----0-----|--2---2---2---2---2---|
D|--0---0-----------------------|--2-----------2---2---|
A|---------0--2--3-----2--------|--0-----------0---0---|
E|---------------------------3--|----------------------|

1st Verse (Chorus)

L.R.-----------------------------------|

e|--------------------------------------|----------------------------------|
B|-----------3--------------------------|----------------------------------|
G|--------0-----0-----------0--------0--|--2--2-------------2--2-----------|
D|-----2-----------0-----0--------0-----|--2--2-------2--4-----2--4--2-----|
A|--3-----------------2-----------------|--0--0--2/4--------------------4--|
E|-----------------------------3--------|----------------------------------|

L.R.----------------------------------|

e|-------------------------------------|-----5---5---5---5---5---5---|
B|----------1--------------1-----------|-----2---2---2---2---2---2---|
G|-------0-----0--------0-----------0--|-2---2---2---2---2---2---2---|
D|----2-----------0-------------0------|-2---------------------------|
A|-3-----------------2-----------------|-0---------------------------|
E|----------------------------3--------|-----------------------------|

L.R.----------------------------------|

e|-------------------------------------|------------------------------------|
B|----------1--------------1-----------|--2---------------------------------|
G|-------0--------0-----------------0--|--2---2---2---2--------------2---2--|
D|----2--------0--------0--------0-----|--2---2---2---2--------2--4--2---2--|
A|-3-----------------2-----------------|--0---0---0---0--0--4--------0---0--|
E|----------------------------3--------|------------------------------------|

L.R.-----------------------------------|

e|-----------3--------------------------|--5---5---5---5---5---5---5--|
B|--------1-----1-----------1-----------|--5---5---5---5---5---5---5--|
G|-----0-----------0-----------------0--|--2---2---2---2---2---2---2--|
D|-----------------------0--------0-----|--2---2---2---2---2---2---2--|
A|--3-----------------2-----------------|--0---0---0---0---0---0---0--|
E|-----------------------------3--------|-----------------------------|

Pre Chorus (Over Driven)

                  L.R.-------|

e|--2---2-----------------------|--------------------------------|
B|--3---3-----------3-----------|--2-----------------------------|
G|--2---2-----------------0-----|--2--2-------------2------------|
D|--0---0-----------------------|--2--2-------2--4-----4p2-------|
A|---------0--2--3-----2--------|--0--0--3/4----------------4bd--|
E|---------------------------3--|--------------------------------|

           L.R.--------------------|

e|--2---2--------------------------|------5---5---5---5--|
B|--3---3--------------------------|--2---5---5---5---5--|
G|--2---2------0-----0-----0----0--|--2---2---2---2---2--|
D|--0---0--------------------------|--2---2---2---2---2--|
A|----------3-----2----------------|--0------------------|
E|----------------------3----2-----|---------------------|

                       L.R.---------|

e|-----------------------------------|-------------------------------|
B|--------3--3-----------------------|--2---2------------------------|
G|-----2--------2--------0-----0-----|--2---2-------------2----------|
D|--0--------------0-----------------|--2---2-------------2--4-------|
A|--------------------3-----2--------|--0---0--3bd--0--0--------3bd--|
E|--------------------------------3--|-------------------------------|

                  L.R.---------|

e|--2---2-----------------------|------5---5---5---5--|
B|--3---3-----3-----------------|------5---5---5---5--|
G|--2---2--2--------0-----0-----|--2---2---2---2---2--|
D|--0---0-----------------------|--2---2---2---2---2--|
A|---------------3-----2--------|--0------------------|
E|---------------------------3--|---------------------|

2nd Verse (Clean Tone)

L.R.---------------------------------------|

e|--------------0--------------------------|---------------------------------|
B|-----------1-----1-----------------------|----3--2--2----------------------|
G|--------0-----------0--------0--------0--|-2--2--2--2-------------2--------|
D|-----2--------------------0--------0-----|-2--2--2--2-------2--4--2--------|
A|--3--------------------2-----------------|-0-----------2/4-----------3bd--0|
E|--------------------------------3--------|---------------------------------|

e|-----------------------------------|----------------------5---5---5---|
B|--------1--1--1--------------------|----------------------5---5---5---|
G|--------0--0-----------0--------0--|--2---2---2---2-------2---2---2---|
D|-----2--2--2--------2--------0-----|--2---2---2---2---2---2---2---2---|
A|-3---------------2-----------------|--0---0---0---0-------------------|
E|--------------------------3--------|----------------------------------|

L.R.-----------------------------------------------|

e|-----------------0--------------------------------|
B|--------------1-----1-----------------1-----------|
G|--0--------0-----------0-----------0-----------0--|
D|--0-----2-----------------2-----0-----------0-----|
A|-----3-----------------------2--------------------|
E|-----------------------------------------3--------|

e|------------------------------------|
B|------------------------------------|
G|--2--2-------------2----------------|
D|--2--2-------2--4-----4--2----------|
A|--0--0--3/4-----------------3bd--0--|
E|------------------------------------|

L.R.------------------------------------------------|

e|--------------0---------------------0--------------|----------5---5---5--|
B|-----------1-----1---------------1--------------1--|----------5---5---5--|
G|--------0-----------0---------0--------------0-----|--2---2---2---2---2--|
D|-----2-----------------0------------------0--------|--2---2---2---2---2--|
A|--3-----------------------2------------------------|--0---0-----------0--|
E|---------------------------------------3-----------|---------------------|

1st Chorus

L.R.---------------------------------------------------------|

e|--------------------------------|--------------3--------------3--------|
B|-----------1-----------1--------|-----------3-----3-----------3--------|
G|--------0-----------0-----0-----|--------0-----------0--------0--------|
D|-----2-----------0-----------0--|-----0-----------------0-----0--------|
A|--3-----------2-----------------|--------------------------------0--2--|
E|--------------------------------|--3-----------------------2-----------|

             L.R.--------------|

e|-----------------------------|
B|-----1--1-----------1--------|
G|-----0--0--------0-----0-----|
D|-----2--2-----0-----------0--|
A|--3--------2-----------------|
E|-----------------------------|

L.R.----------------------------------------|

e|--------------3-----------------------3-----------|
B|-----------3-----3-----------------3-----3--------|
G|--------0-----------0-----------0-----------------|
D|-----0-----------------0-----0--------------------|
A|--3-----------------------------------------0--2--|
E|--------------------------2-----------------------|

L.R.------------------------------------------|

e|--------------0-----------------------------|
B|-----------1-----2-----------------1--------|
G|--------0-----------0-----------0-----0-----|
D|-----2-----------------2-----0-----------0--|
A|--3-----------------------2-----------------|
E|--------------------------------------------|

L.R.------------------------------------|

e|-----------3-----------------------3-----------|
B|--------------3-----------------------3--------|
G|--------0--------0-----------0-----------------|
D|-----0--------------0-----0--------------------|
A|-----------------------------------------0--2--|
E|--3--------------------2-----------------------|

L.R.------------------------------------|

e|-----------0---------------------------|
B|--------------1---------------1--------|
G|--------0--------0---------0-----0-----|
D|-----2-----------------0------------0--|
A|--3-----------------2------------------|
E|---------------------------------------|

(Over Driven)

e|--3---3---3---3---3---3--|-------------------------|
B|--3---3---3---3---3---3--|-------------------------|
G|--0---0---0---0---0---0--|--2---2---2---2---2---2--|
D|--0---0---0---0---0---0--|--2---2---2---2---2---2--|
A|--2---2---2---2---2---2--|--0---0---0---0---0---0--|
E|--3---3---3---3---3---3--|-------------------------|

Bridge (Clean Tone)

L.R.--------------------------------------------------------|

e|-----5--------5--------5-----|-----4--------4--------4-----|
B|--------6--------6--------6--|--------5--------5--------5--|
G|-----------5--------5--------|-----------4--------4--------|
D|--0--------------------------|--0--------------------------|
A|-----------------------------|-----------------------------|
E|-----------------------------|-----------------------------|

L.R.---------------------------|

e|-----3--------3--------3-----|
B|--------4--------4--------4--|
G|-----------3--------3--------|
D|--0--------------------------|
A|-----------------------------|
E|-----------------------------|

Intro Reprise (Over Driven)

L.R.----------|

e|------------2------------------|--2---------------------|
B|----3---3----------------------|--3---3-----------------|
G|--0h2--------------------------|--2---2-----------------|
D|--0----------------------------|--0---0-----------------|
A|----------------3---2----------|----------3---2---------|
E|------------------------3---2--|-----------------3---2--|

e|--2--------------------------|------------------5---5---5---5--|
B|--3---3-------3-------3------|------3---3---3---5---5---5---5--|
G|--2-----------0-------0------|--2---2---2---2---2---2---2---2--|
D|--0-----------0-------0------|--2---------------2---2---2---2--|
A|----------3-------2----------|--0---------------0---0-------0--|
E|--------------------------3--|---------------------------------|

3rd Verse

                  L.R.-------|

e|--2---2-----------------------|----------------------------------------|
B|--3---3-----------3-----------|--2-------------------------------------|
G|--2---2-----------------0-----|--2--2-------------2--2-----2-----------|
D|--0---0-----------------------|--2--2-------2--4--------4-----4--2-----|
A|---------0--2--3-----2--------|--0--0--3/4--------------------------4--|
E|---------------------------3--|----------------------------------------|

                   L.R.-------|

e|--2---2-----------------------|--------------------------------------------|
B|--3---3-----------3-----------|--2--3--3--3--------------------------------|
G|--2---2-----------------0-----|--2--2--2--2--2--2--------------------------|
D|--0---0-----------------------|--2--2--2--2--2--2--------------------------|
A|---------0--2--3-----2--------|--0-----------0--0-------0--3bd--0-------0--|
E|---------------------------3--|--------------------3bd-------------3bd-----|

                   L.R.-------|

e|--2---2-----------------------|----------------------------------|
B|--3---3-----------3-----------|--2--3--3--3----------------------|
G|--2---2-----------------0-----|--2--2--2--2--2--2-------------2--|
D|--0---0-----------------------|--2--2--2--2--2--2-------2--4-----| 
A|---------0--2--3-----2--------|--0-----------0--0--3/4-----------|
E|---------------------------3--|----------------------------------|

L.R.-----------------------------------------|

e|-----------2--------------------------------|---------------------|
B|--------3-----3--------------3--------3-----|------3---3---3------|
G|-----2-----------2--------0--------0--------|--2---2---2---2---2--|
D|--0-----------------0-----------------------|--2---2---2---2---2--|
A|-----------------------3--------2-----------|--0---------------0--|
E|-----------------------------------------3--|---------------------|

2nd Chorus ( Clean Tone)

L.R.------------------------------------------|

e|--------------0-----------------------------|
B|-----------1-----1-----------------1--------|
G|--------0-----------0-----------0-----0-----|
D|-----2-----------------2-----0-----------0--|
A|--3-----------------------2-----------------|
E|--------------------------------------------|

L.R.--------------------------------------|

e|-----------3-----------------------3-----------|
B|--------------3-----------------------3--------|
G|--------0--------0-----------0-----------------|
D|-----0--------------0-----0--------------------|
A|-----------------------------------------0--2--|
E|--3--------------------2-----------------------|

L.R.------------------------------------------|

e|--------------0-----------------------------|
B|-----------1-----2-----------------1--------|
G|--------0-----------0-----------0-----0-----|
D|-----2-----------------2-----0-----------0--|
A|--3-----------------------2-----------------|
E|--------------------------------------------|

L.R.-------------------------------------|

e|-----------3-----------------------3-----------|
B|--------------3-----------------------3--------|
G|--------0--------0-----------0-----------------|
D|-----0--------------0-----0--------------------|
A|-----------------------------------------0--2--|
E|--3--------------------2-----------------------|

L.R.-----------------------------------------|

e|--------------0-----------------------------|
B|-----------1-----2-----------------1--------|
G|--------0-----------0-----------0-----0-----|
D|-----2-----------------2-----0-----------0--|
A|--3-----------------------2-----------------|
E|--------------------------------------------|


L.R.--------------------------------------------|


e|-----------3-----------------------3-----------|
B|--------------3-----------------------3--------|
G|--------0--------0-----------0-----------------|
D|-----0--------------0-----0--------------------|
A|-----------------------------------------0--2--|
E|--3--------------------2-----------------------|

L.R.-------------------------------------|

e|-----------0---------------------------|
B|--------------1---------------1--------|
G|--------0--------0---------0-----0-----|
D|-----2-----------------0------------0--|
A|--3-----------------2------------------|
E|---------------------------------------|

(Over Driven)

e|--3---3---3---3---3---3--|---------------------------------------------|
B|--3---3---3---3---3---3--|---------------------------------------------|
G|--0---0---0---0---0---0--|--2---2---2---2---2---2---2---2---2---2---2--|   
D|--0---0---0---0---0---0--|--2---2---2---2---2---2---2---2---2---2---2--|
A|--2---2---2---2---2---2--|--0---0---0---0---0---0---0---0---0---0---0--|
E|--3---3---3---3---3---3--|---------------------------------------------|

Outro

                   L.R.-------|

e|--2---2-----------------------|-----------------------------|
B|--3---3-----------------------|-----------------------------|
G|--2---2-----------0-----0-----|--2---2---2---2---2---2---2--|
D|--0---0-----------------------|--2---2---2---2---2---2---2--|
A|---------0--2--3-----2--------|--0---0---0---0---0---0---0--|
E|---------------------------3--|-----------------------------|

                    L.R.-------|

e|--2---2-----------------------|---------------------------------|
B|--3---3-----------------------|---------------------------------|
G|--2---2-----------0-----0-----|--2---2---2---2---2---2---2---2--|
D|--0---0-----------------------|--2---2---2---2---2---2---2---2--|
A|---------0--2--3-----2--------|--0---0---0---0---0---0---0---0--|
E|---------------------------3--|---------------------------------|

                    L.R.-------|

e|--2---2-----------------------|--------------------------|
B|--3---3-----------------------|--2-----------------------|
G|--2---2-----------0-----0-----|--2--2--------------------|
D|--0---0-----------------------|--2--2-------2--4--2------|
A|---------0--2--3-----2--------|--0--0--2/4-----------4---|
E|---------------------------3--|--------------------------|

                  L.R.-------|

e|--2---2-----------------------|-------------------------|
B|--3---3-----------------------|-------------------------|
G|--2---2-----------0-----0-----|--2---2---2---2---2---2--|
D|--0---0-----------------------|--2---2---2---2---2---2--|
A|---------0--2--3-----2--------|--0---0---0---0---0---0--|
E|---------------------------3--|-------------------------|

                  L.R.-------|

e|--2---2-----------------------|----------------------------------|
B|--3---3-----------3-----------|----------------------------------|
G|--2---2-----------------0-----|--2--2-------------2--2-----------|
D|--0---0-----------------------|--2--2-------2--4--------4--2-----|
A|---------0--2--3-----2--------|--0--0--2/4--------------------4--|
E|---------------------------3--|----------------------------------|

                  L.R.-------|

e|--2---2-----------------------|---------------------------------|
B|--3---3-----------------------|---------------------------------|
G|--2---2-----------0-----0-----|--2---2---2---2---2---2---2---2--|
D|--0---0-----------------------|--2---2---2---2---2---2---2---2--|
A|---------0--2--3-----2--------|--0---0---0---0---0---0---0---0--|
E|---------------------------3--|---------------------------------|

                  L.R.-------|
                                             Fade out
e|--2---2-----------------------|---------------------------------|
B|--3---3-----------------------|---------------------------------|
G|--2---2-----------0-----0-----|--2---2---2---2---2---2---2---2--|
D|--0---0-----------------------|--2---2---2---2---2---2---2---2--|
A|---------0--2--3-----2--------|--0---0---0---0---0---0---0---0--|
E|---------------------------3--|---------------------------------|

Intro Solo (Over Driven)
 
* 3/4 return on bend
e|--------------------|-----------------10--|
B|--------------------|--10b---7---10-------|
G|--7---9br*---9p7h9--|---------------------|
D|--------------------|---------------------|
A|--------------------|---------------------|
E|--------------------|---------------------|

e|-------------------------------------------------|
B|----------8--------------------------------------|
G|--9br--7-----10--9--7----------------------------|
D|-----------------------9--7------------------7---|
A|-----------------------------9\7--5--5--7/9------|
E|-------------------------------------------------|

e|--------------------------------------|
B|--------------------------------------|
G|--------------7--9---------9br--7--9--|
D|--9br--7--9b--------9b--7-------------|
A|--------------------------------------|
E|--------------------------------------|

Outro Solo
             T
e|----------------------|------------10--------7--|------------------------|
B|----------------------|--10b--10b------10br-----|------------10----------|
G|--9br--7--14p9pbr--7--|-------------------------|--9brb--9b------9br--7--|
D|----------------------|-------------------------|------------------------|
A|----------------------|-------------------------|------------------------|
E|----------------------|-------------------------|------------------------|

e|------------10-------10--------|-------10--10b--10pbr--7----------|
B|--10b--10b------10b------10br--|--10b-----------------------------|
G|-------------------------------|--------------------------9br--7--|
D|-------------------------------|----------------------------------|
A|-------------------------------|----------------------------------|
E|-------------------------------|----------------------------------|

e|----------------------------------|----------10-------10-------------------|
B|-------------------------10b--10b-|-10--10b------10b------10b--10b--10--10b|
G|--9--7----------------7-----------|----------------------------------------|
D|--------9-------7--9--------------|----------------------------------------|
A|-----------6/9--------------------|----------------------------------------|
E|----------------------------------|----------------------------------------|

e|-------------------------7---------------------------|
B|------------------7--10-----10-------------------10--|
G|--9br--7--9--7/9----------------9br--7--9--9/11------|
D|-----------------------------------------------------|
A|-----------------------------------------------------|
E|-----------------------------------------------------|

e|----------------------|------------------------------------------|
B|--13b--13br--10--13b--|--13br--10--13br--10--12--------10b--10b--|
G|----------------------|--------------------------9--7------------|
D|----------------------|------------------------------------------|
A|----------------------|------------------------------------------|
E|----------------------|------------------------------------------|

e|-----------10---------------------------------|
B|--10--10b-------------------------------------|
G|---------------9br--7--9--7-------------------|
D|-----------------------------9----------------|
A|--------------------------------9\7--5--7--5--|
E|----------------------------------------------|

e|------------------------------------------|
B|----------------------10--10--12--10--12--|
G|-------------7--8/11----------------------|
D|-------7--9-------------------------------|
A|--7/9-------------------------------------|
E|------------------------------------------|

                                 Fade out
e|-------------10----------------|-----------------|
B|--10br--10b------10b--10br--8--|--10-------------|
G|-------------------------------|------9br--7--9--|
D|-------------------------------|-----------------|
A|-------------------------------|-----------------|
E|-------------------------------|-----------------|

************************************

| /   slide up
| \   slide down
| h   hammer-on
| p   pull-off
| ~   vibrato
| +   harmonic
| x   Mute note
| b   Bend
| pb  Pre-bend
| br  Bend release
| pbr Pre-bend release
| brb Bend release bend
| bd  Bend down
| L.R. Let Ring
************************************
Intro

N.C.

A  Asus  A  Asus  A

Intro Solo

D  N.C.

A  Asus  A

D  N.C.

A  Asus  A

D  N.C.

A  Asus  A

1st Verse

Cadd9          Em7          G     A   Asus  A
     Watch the rain as it dries away 

Cadd9               Em7           G      A   Asus  A
      bringing new life on some people today 

Cadd9                Em7          G    A
      I've tried so hard to keep from 

     Asus  A
cryin so 

Cadd9                Em7     G
      I've tried to tell myself 

A            Asus  A
  to let you go 

Pre Chorus

D  N.C.                               A  Asus
   See you sittin on your throne now 

A                     D  N.C.  A  Asus  A  Asus  A
tell me baby what you see 

     D  N.C.                A  Asus  A
yeah anybody has a peephole 

                                        D  N.C.  A  Asus  A
oh they love to spread their lies about me 

2nd Verse

Cadd9              Em7      G              A   Asus  A
        Watch the sun as it rises kind of slow 

Cadd9                Em7    G  A            Asus  A
      shining on the people now letting you know 

Cadd9                     Em7      G    A
      theres gonna come a time now when 

          Asus  A
when I'am tired 

Cadd9                         Em7         G    A         
     and you see how all your friends now baby 

            Asus  A
all of them lied 

1st Chorus

Cadd9              Em7       G
      Try a little harder 

            Em7
to make'em smile 

Cadd9             Em7    G
     try a little harder 

        Em7
all the while 

Cadd9              Em7    G
      try a little harder 

         Em7
bring a sunny day yeah yeah 

cadd9              Em7        A
      try a little harder to come my way 

Bridge

N.C.

D  N.C.

D  N.C.

A  Asus  A  Asus  A

3rd Verse

    D            Cadd9  D/B   D/G  A
Well Sure as the stars shine 

                    D   Cadd9  D/B  D/G  A  Asus  A  Asus  A
gonna come a cloudy day 

   D                     Cadd9 D/B D/G  A
oh and the rain that you make now 

               D   Cadd9  D/B  D/G  A  Asus  A
gonna wash me away 

2nd Chorus

Cadd9              Em7       G
      Try a little harder 

            Em7
to make'em smile 

Cadd9             Em7    G
     try a little harder 

        Em7
all the while 

Cadd9              Em7    G
      try a little harder 

         Em7
bring a sunny day yeah yeah 

cadd9              Em7        A
      try a little harder to come my way 
Outro

D  N.C.  A  Asus
 yeah won't you try a little harder

D  N.C.  A

D  N.C.  A

D  N.C.  A

D  N.C.  A  Asus  A

D  N.C.  A  Asus  A

D  N.C.  A  Asus  A

Fade out
Добавлено: 04.06.2013
Другие материалы по этой песне:

Страница создана 28.06.2012
http://primanota.ru/blackfoot/try-a-little-harder-chords.htm
Привет, Гость.
Предлагаем пройти революционный курс по гитаре.
Подарок от PrimaNota.Ru, забирай!