PrimaNota.ru - самый крупный в мире бесплатный архив песенных текстов, аккордов, табулатур и нот


Blackfoot - Stars - текст песни, таба, видео

Регистрация Запомнить меня
Войти через:  Facebook Google Twitter Vk Yandex Mail.ru

Blackfoot - Stars - текст песни, таба, видео

Печатать
Просмотров: 113
Уроки эстрадного вокала в Санкт-Петербурге
------------------------------------------------------------------------------
1.                           Stars- Blackfoot
2.                         No Reservations- 1975
3.                   Words and Music by Jakson Spires
------------------------------------------------------------------------------
Tabbed by:Duane Baldwin
E-mail:duaneandjulie@gmail.com

Tuning: Half Step Down

Guitar I (Clean Tone)

Intro

  Let Ring --------------------------------------------------|

e|------------------0----------|------------------0----------|
B|------1-------3--------------|--------------3--------------|
G|----------0---------------0--|------0-------------------0--|
D|----------------------2------|----------0-----------0------|
A|--3--------------------------|--2--------------------------|
E|-----------------------------|-----------------------------|

     Let Ring -----------------------------------|

e|--------------------------3--|--0------------------|
B|--------------3---1----------|------3---1-------0--|
G|------2---------------0------|--------------0------|
D|----------2-------2---2------|--2---2---2----------|
A|--0--------------------------|--------------0---2--|
E|-----------------------------|---------------------|

  Let Ring --------------------------------------------------|

e|------------------0----------|------------------0----------|
B|------1-------3--------------|--------------3--------------|
G|----------0---------------0--|------0-------------------0--|
D|----------------------2------|----------0-----------0------|
A|--3--------------------------|--2--------------------------|
E|-----------------------------|-----------------------------|

     Let Ring -------------------------------------|

e|--------------------------3--|--3---0----------------------|
B|--------------3---1----------|----------3---3---1-------0--|
G|------2---------------0------|--------------0-------0------|
D|----------2-------2---2------|--2---2---2-------2----------|
A|--0--------------------------|--------------0-------0---2--|
E|-----------------------------|-----------------------------|

  Let Ring --------------------------------------------------|

e|------------------0----------|------------------0----------|
B|------1-------3--------------|--------------3--------------|
G|----------0---------------0--|------0-------------------0--|
D|----------------------2------|----------0-----------0------|
A|--3--------------------------|--2--------------------------|
E|-----------------------------|-----------------------------|

     Let Ring -----------------------------------|

e|--------------------------3--|--0------------------|
B|--------------3---1----------|------3---1-------0--|
G|------2---------------0------|--------------0------|
D|----------2-------2---2------|--2---2---2----------|
A|--0--------------------------|--------------0---2--|
E|-----------------------------|---------------------|

  Let Ring --------------------------------------------------|

e|------------------0----------|------------------0----------|
B|------1-------3--------------|--------------3--------------|
G|----------0---------------0--|------0-------------------0--|
D|----------------------2------|----------0-----------0------|
A|--3--------------------------|--2--------------------------|
E|-----------------------------|-----------------------------|

Bridge (Overdriven Tone)

e|----------------------|---------------------------|-------------------|
B|----------------------|---------------------------|-------------------|
G|--2----2--2--2--2--2--|--2--2--2--2--2--2--2---4--|------5---------5--|
D|--2----2--2--2--2--2--|--2--2--2--2--2--2--2---4--|------5---------5--|
A|--0----0--0--0--0--0--|--0--0--0--0--0--0--0---2--|--0---3-----0---3--|
E|----------------------|---------------------------|-------------------|

e|--------------------|-------------------|-------------------------|
B|--------------------|-------------------|-------------------------|
G|------5---------5---|--0---2-----0---2--|----------0-------0---2--|
D|------5---------5---|--0---2-----0---2--|--0---2---0---2---0------|
A|--0---3-----0---3---|--0---0-----0---0--|--0---2-------2----------|
E|--------------------|-------------------|-------------------------|

e|-------------------|--------------------|-------------------|-----------3--|
B|-------------------|--------------------|-------------------|-----------3--|
G|------5---------5--|------5---------5---|--0---2-----0---2--|-----------0--|
D|------5---------5--|------5---------5---|--0---2-----0---2--|--0---2----0--|
A|--0---3-----0---3--|--0---3-----0---3---|--0---0-----0---0--|--0---2----2--|
E|-------------------|--------------------|-------------------|-----------3--|
 ( Clean Tone)

  Let Ring --------------------------------------------------|

e|------------------0----------|------------------0----------|
B|------1-------3--------------|--------------3--------------|
G|----------0---------------0--|------0-------------------0--|
D|----------------------2------|----------0-----------0------|
A|--3--------------------------|--2--------------------------|
E|-----------------------------|-----------------------------|

     Let Ring -----------------------------------|

e|--------------------------3--|--0------------------|
B|--------------3---1----------|------3---1-------0--|
G|------2---------------0------|--------------0------|
D|----------2-------2---2------|--2---2---2----------|
A|--0--------------------------|--------------0---2--|
E|-----------------------------|---------------------|


1st Verse


  Let Ring --------------------------------------------------|

e|------------------0----------|------------------0----------|
B|------1-------3--------------|--------------3--------------|
G|----------0---------------0--|------0-------------------0--|
D|----------------------2------|----------0-----------0------|
A|--3--------------------------|--2--------------------------|
E|-----------------------------|-----------------------------|

     Let Ring -------------------------------------|

e|--------------------------3--|--3---0----------------------|
B|--------------3---1----------|----------3---3---1-------0--|
G|------2---------------0------|--------------0-------0------|
D|----------2-------2---2------|--2---2---2-------2----------|
A|--0--------------------------|--------------0-------0---2--|
E|-----------------------------|-----------------------------|

  Let Ring --------------------------------------------------|

e|------------------0----------|------------------0----------|
B|------1-------3--------------|--------------3--------------|
G|----------0---------------0--|------0-------------------0--|
D|----------------------2------|----------0-----------0------|
A|--3--------------------------|--2--------------------------|
E|-----------------------------|-----------------------------|

   Let Ring ---------------------------------------|

e|--------------------------3--|--3---0----------------------|
B|--------------3---1----------|----------3---3---1-------0--|
G|------2---------------0------|----------------------0------|
D|----------2------------------|-----------------------------|
A|--0--------------------------|----------------------0---2--|
E|-----------------------------|-----------------------------|

1st Chorus (Overdriven)

e|----3----|----3----|----1-----1----|----1-----1----|
B|----3----|----3----|----1-----1----|----1-----1----|
G|----0----|----0----|----2-----2----|----2-----2----|
D|----0----|----0----|----3-----3----|----3-----3----|
A|----2----|----2----|----3-----3----|----3-----3----|
E|----3----|----3----|----1-----1----|----1-----1----|

(Clean Tone)

  Let Ring --------------------------------------------------|

e|------------------0----------|------------------0----------|
B|------1-------3--------------|--------------3--------------|
G|----------0---------------0--|------0-------------------0--|
D|----------------------2------|----------0-----------0------|
A|--3--------------------------|--2--------------------------|
E|-----------------------------|-----------------------------|


 2nd Bridge (Overdriven Tone)

e|----------------------|---------------------------|-------------------|
B|----------------------|---------------------------|-------------------|
G|--2----2--2--2--2--2--|--2--2--2--2--2--2--2---4--|------5---------5--|
D|--2----2--2--2--2--2--|--2--2--2--2--2--2--2---4--|------5---------5--|
A|--0----0--0--0--0--0--|--0--0--0--0--0--0--0---2--|--0---3-----0---3--|
E|----------------------|---------------------------|-------------------|

e|--------------------|-------------------|-------------------------|
B|--------------------|-------------------|-------------------------|
G|------5---------5---|--0---2-----0---2--|----------0-------0---2--|
D|------5---------5---|--0---2-----0---2--|--0---2---0---2---0------|
A|--0---3-----0---3---|--0---0-----0---0--|--0---2-------2----------|
E|--------------------|-------------------|-------------------------|

e|-------------------|--------------------|-------------------|-----------3--|
B|-------------------|--------------------|-------------------|-----------3--|
G|------5---------5--|------5---------5---|--0---2-----0---2--|-----------0--|
D|------5---------5--|------5---------5---|--0---2-----0---2--|--0---2----0--|
A|--0---3-----0---3--|--0---3-----0---3---|--0---0-----0---0--|--0---2----2--|
E|-------------------|--------------------|-------------------|-----------3--|

2nd Verse (Clean Tone)


  Let Ring --------------------------------------------------|

e|------------------0----------|------------------0----------|
B|------1-------3--------------|--------------3--------------|
G|----------0---------------0--|------0-------------------0--|
D|----------------------2------|----------0-----------0------|
A|--3--------------------------|--2--------------------------|
E|-----------------------------|-----------------------------|

     Let Ring -------------------------------------|

e|--------------------------3--|--3---0----------------------|
B|--------------3---1----------|----------3---3---1-------0--|
G|------2---------------0------|--------------0-------0------|
D|----------2-------2---2------|--2---2---2-------2----------|
A|--0--------------------------|--------------0-------0---2--|
E|-----------------------------|-----------------------------|

  Let Ring --------------------------------------------------|

e|------------------0----------|------------------0----------|
B|------1-------3--------------|--------------3--------------|
G|----------0---------------0--|------0-------------------0--|
D|----------------------2------|----------0-----------0------|
A|--3--------------------------|--2--------------------------|
E|-----------------------------|-----------------------------|

   Let Ring ---------------------------------------|

e|--------------------------3--|--3---0----------------------|
B|--------------3---1----------|----------3---3---1-------0--|
G|------2---------------0------|----------------------0------|
D|----------2------------------|-----------------------------|
A|--0--------------------------|----------------------0---2--|
E|-----------------------------|-----------------------------|

  Let Ring --------------------------------------------------|

e|------------------0----------|------------------0----------|
B|------1-------3--------------|--------------3--------------|
G|----------0---------------0--|------0-------------------0--|
D|----------------------2------|----------0-----------0------|
A|--3--------------------------|--2--------------------------|
E|-----------------------------|-----------------------------|

  Let Ring ------------------------------------------------------------|

e|-------------------------------------|---------------------------------|
B|--1---1---------------3---3----------|--1---1-----------1-----------0--|
G|--2-------2-------2---4-------4------|--2-------2-----------2---2------|
D|--2-----------3---2---4-----------4--|--2-----------2------------------|
A|--0---------------0---0--------------|--0------------------------------|
E|-------------------------------------|---------------------------------|


  Let Ring --------------------------------------------------|

e|------------------0----------|------------------0----------|
B|------1-------3--------------|--------------3--------------|
G|----------0---------------0--|------0-------------------0--|
D|----------------------2------|----------0-----------0------|
A|--3--------------------------|--2--------------------------|
E|-----------------------------|-----------------------------|

   Let Ring ---------------------------------------|

e|--------------------------3--|--3---0----------------------|
B|--------------3---1----------|----------3---3---1-------0--|
G|------2---------------0------|----------------------2------|
D|----------2------------------|-----------------------------|
A|--0--------------------------|-----------------------------|
E|-----------------------------|-----------------------------|


2nd Chorus (Over Driven Tone)

e|----3----|----3---3---3--|----1----|----1-----1---1--|-------|-------|
B|----3----|----3---3---3--|----1----|----1-----1---1--|-------|-------|
G|----0----|----0---0---0--|----2----|----2-----2---2--|-------|-------|
D|----0----|----0---0---0--|----3----|----3-----3---3--|-------|-------|
A|----2----|----2----------|----3----|----3------------|---3---|---2---|
E|----3----|----3----------|----1----|----1------------|-------|-------|


e|-------|-------|-------|-------|----3----|----3----|
B|-------|-------|-------|-------|----3----|----3----|
G|-------|-------|-------|-------|----0----|----0----|
D|-------|-------|-------|-------|----0----|----0----|
A|---0---|-------|-------|-------|----2----|----2----|
E|-------|---3---|---1---|---1---|----3----|----3----|

(Clean Tone)                                                            

  Let Ring --------------------------------------------------|
                                                           (Over Driven Tone)
e|------------------0----------|------------------0----------|------------|
B|------1-------3--------------|--------------3--------------|------------|
G|----------0---------------0--|------0-------------------0--|----0h2-----|
D|----------------------2------|----------0-----------0------|----0h2-----|
A|--3--------------------------|--2--------------------------|----0h0-----|
E|-----------------------------|-----------------------------|------------|


Lead In To Solo

e|---------------------------------|--12---13b---12---|
B|--------------------------8/12---|------------------|
G|--------------------7/9----------|------------------|
D|----------5---7/9----------------|------------------|
A|--5---7--------------------------|------------------|
E|---------------------------------|------------------|

Main   Solo

e|---------------|-------5---8------------8--|-------------------------------|
B|----8b----8b---|--8b-----------8b---5------|--8br---5----------------------|
G|---------------|---------------------------|------------7pbr---5--7--5-7pbr|
D|---------------|---------------------------|-------------------------------|
A|---------------|---------------------------|-------------------------------|
E|---------------|---------------------------|-------------------------------|

e|--------------------|------------------------|---------------------------|
B|----------------8---|---------------------8--|---------------------------|
G|--5---7---5/9-------|--7br---5---7---7b------|--7br---5---7---5----------|
D|--------------------|------------------------|--------------------7---5--|
A|--------------------|------------------------|---------------------------|
E|--------------------|------------------------|---------------------------|

e|-------------------------|--------------------------|-----------5-----|
B|--5----------------------|--------------------------|-------8---------|
G|------5------------------|--------------------------|--7b-------------|
D|----------7---5-------5--|-------5---7---7---7---5--|-----------------|
A|------------------7------|--/7----------------------|-----------------|
E|-------------------------|--------------------------|-----------------|


                                          P.M.---------------------|
e|----------------|--10b---10br---8---10--|-------------------------|
B|-------8--------|-----------------------|-------------------------|
G|--7b-------7b---|-----------------------|-------------------------|
D|----------------|-----------------------|-------------------------|
A|----------------|-----------------------|----------5-------5---7--|
E|----------------|-----------------------|--5---7-------------7----|

e|--10br---8---10---8---10----|--10br---8---10---8-------|
B|----------------------------|----------------------10--|
G|----------------------------|--------------------------|
D|----------------------------|--------------------------|
A|----------------------------|--------------------------|
E|----------------------------|--------------------------|

e|----------------------|-------------------|
B|--8b---8---5----------|-------------------|
G|---------------7---5--|--7---7br---5---7--|
D|----------------------|-------------------|
A|----------------------|-------------------|
E|----------------------|-------------------|


3nd Chorus 

e|----3----|----3----|----1----|-------------|---------|-------|-------|
B|----3----|----3----|----1----|-------------|---------|-------|-------|
G|----0----|----0----|----2----|--2---2---2--|--2---2--|-------|-------|
D|----0----|----0----|----3----|--3---3---3--|--3---3--|-------|-------|
A|----2----|----2----|----3----|--3---3---3--|--3---3--|---3---|---2---|
E|----3----|----3----|----1----|--1---1---1--|--1---1--|-------|-------|

e|-------|-------|-------|-------|----3----3----3----|
B|-------|-------|-------|-------|----3----3----3----|
G|-------|-------|-------|-------|----0----0----0----|
D|-------|-------|-------|-------|----0----2----0----|
A|---0---|-------|-------|---3---|----2----3----2----|
E|-------|---3---|---1---|---1---|----3---------3----|

Outro (Clean Tone)

  L.R.---------------------------------------------|

e|--0-----------0----------|--------------0----------|
B|--1-------3-------3------|--3-------3-------3------|
G|--0---0---------------0--|--0---0---------------0--|
D|--2----------------------|--0----------------------|
A|--3----------------------|--2----------------------|
E|-------------------------|-------------------------|

  L.R.----------------------------------------------|

e|--0------------------------3--|--3---0----------------------|
B|--1------------3---1----------|----------3---3---1-------0--|
G|--0----2---------------0------|----------------------0------|
D|--2--------2------------------|-----------------------------|
A|--3---------------------------|----------------------0---2--|
E|------------------------------|-----------------------------|

  L.R.---------------------------------------------|

e|--0-----------0----------|--------------0----------|
B|--1-------3-------3------|--3-------3-------3------|
G|--0---0---------------0--|--0---0---------------0--|
D|--2----------------------|--0----------------------|
A|--3----------------------|--2----------------------|
E|-------------------------|-------------------------|

  L.R.----------------------------------------------|

e|--0------------------------3--|--3---0----------------------|
B|--1------------3---1----------|----------3---3---1-------0--|
G|--0----2---------------0------|----------------------0------|
D|--2--------2------------------|-----------------------------|
A|--3---------------------------|----------------------0---2--|
E|------------------------------|-----------------------------|

  L.R.---------------------------------------------|

e|--0-----------0----------|--------------0----------|
B|--1-------3-------3------|--3-------3-------3------|
G|--0---0---------------0--|--0---0---------------0--|
D|--2----------------------|--0----------------------|
A|--3----------------------|--2----------------------|
E|-------------------------|-------------------------|

  L.R.----------------------------------------------|

e|--0------------------------3--|--3---0----------------------|
B|--1------------3---1----------|----------3---3---1-------0--|
G|--0----2---------------0------|----------------------0------|
D|--2--------2------------------|-----------------------------|
A|--3---------------------------|----------------------0---2--|
E|------------------------------|-----------------------------|

  L.R.---------------------------------------------|

e|--0-----------0----------|--------------0----------|
B|--1-------3-------3------|--3-------3-------3------|
G|--0---0---------------0--|--0---0---------------0--|
D|--2----------------------|--0----------------------|
A|--3----------------------|--2----------------------|
E|-------------------------|-------------------------|

  L.R.----------------------------------------------|

e|--0------------------------3--|--3---0----------------------|
B|--1------------3---1----------|----------3---3---1-------0--|
G|--0----2---------------0------|----------------------0------|
D|--2--------2------------------|-----------------------------|
A|--3---------------------------|----------------------0---2--|
E|------------------------------|-----------------------------|

  L.R.---------------------------------------------|

e|--0-----------0----------|--------------0----------|
B|--1-------3-------3------|--3-------3-------3------|
G|--0---0---------------0--|--0---0---------------0--|
D|--2----------------------|--0----------------------|
A|--3----------------------|--2----------------------|
E|-------------------------|-------------------------|

  L.R.----------------------------------------------|

e|--0------------------------3--|--3---0----------------------|
B|--1------------3---1----------|----------3---3---1-------0--|
G|--0----2---------------0------|----------------------0------|
D|--2--------2------------------|-----------------------------|
A|--3---------------------------|----------------------0---2--|
E|------------------------------|-----------------------------|

  L.R.---------------------------------------------|

e|--0-----------0----------|--------------0----------|
B|--1-------3-------3------|--3-------3-------3------|
G|--0---0---------------0--|--0---0---------------0--|
D|--2----------------------|--0----------------------|
A|--3----------------------|--2----------------------|
E|-------------------------|-------------------------|

  L.R.----------------------------------------------|
                                                                        Fade Out
e|--0------------------------3--|--3---0----------------------|
B|--1------------3---1----------|----------3---3---1-------0--|
G|--0----2---------------0------|----------------------0------|
D|--2--------2------------------|-----------------------------|
A|--3---------------------------|----------------------0---2--|
E|------------------------------|-----------------------------|

Guitar II (Clean Tone)

Intro

e|------------------|------------------|------------------|------------------|
B|------------------|------------------|------------------|------------------|
G|------------------|------------------|------------------|------------------|
D|------------------|------------------|------------------|------------------|
A|------------------|------------------|------------------|------------------|
E|------------------|------------------|------------------|------------------|

L.R.---------------------------------------------------------|

e|------------------0----------|------------------0----------|
B|--------------3-----------3--|--------------3--------------|
G|----------0-----------0------|----------0---------------0--|
D|------2----------------------|------0---------------0------|
A|--3--------------------------|--2--------------------------|
E|-----------------------------|-----------------------------|

L.R.----------------------------------------------------|

e|-------------------------|--0--------------------------|
B|--------------0---1---3--|------3---1---0---1-------0--|
G|----------2--------------|----------------------2------|
D|------2------------------|-----------------------------|
A|--0----------------------|-----------------------------|
E|-------------------------|-----------------------------|

L.R.---------------------------------------------------------|

e|------------------0----------|------------------0----------|
B|--------------3-----------3--|--------------3--------------|
G|----------0-----------0------|----------0---------------0--|
D|------2----------------------|------0---------------0------|
A|--3--------------------------|--2--------------------------|
E|-----------------------------|-----------------------------|

L.R.-----------------------------------------------------|

e|-------------------------|--0--------------------------|
B|--------------0---1---3--|------3---1---0---1-------0--|
G|----------2--------------|----------------------2------|
D|------2------------------|-----------------------------|
A|--0----------------------|-----------------------------|
E|-------------------------|-----------------------------|

  L.R.------------------------------------------------------|

e|------------------0----------|------------------0----------|
B|--------------3-----------3--|--------------3--------------|
G|----------0-----------0------|----------0---------------0--|
D|------2----------------------|------0---------------0------|
A|--3--------------------------|--2--------------------------|
E|-----------------------------|-----------------------------|

Bridge (Overdriven Tone)

e|----------------------|---------------------------|-------------------|
B|----------------------|---------------------------|-------------------|
G|--2----2--2--2--2--2--|--2--2--2--2--2--2--2---4--|------5---------5--|
D|--2----2--2--2--2--2--|--2--2--2--2--2--2--2---4--|------5---------5--|
A|--0----0--0--0--0--0--|--0--0--0--0--0--0--0---2--|--0---3-----0---3--|
E|----------------------|---------------------------|-------------------|

e|--------------------|-------------------|--------------------------|
B|--------------------|--0----------------|--------------------------|
G|------5---------5---|--0---2-----0---2--|----------5---------------|
D|------5---------5---|--0---2-----0---2--|----------5-------5---7---|
A|--0---3-----0---3---|--0---0-----0---0--|--5---7-------7---5---7---|
E|--------------------|-------------------|--5---7-------7-----------|

e|-------------------|--------------------|-------------------|-------------|
B|-------------------|--------------------|--0----------------|-------------|
G|------5---------5--|------5---------5---|--0---2-----0---2--|-------------|
D|------5---------5--|------5---------5---|--0---2-----0---2--|----------5--|
A|--0---3-----0---3--|--0---3-----0---3---|--0---0-----0---0--|--5---7---5--|
E|-------------------|--------------------|-------------------|--5---7------|

(Clean Tone)

L.R.---------------------------------------------------------|

e|------------------0----------|------------------0----------|
B|--------------3-----------3--|--------------3--------------|
G|----------0-----------0------|----------0---------------0--|
D|------2----------------------|------0---------------0------|
A|--3--------------------------|--2--------------------------|
E|-----------------------------|-----------------------------|

L.R.----------------------------------------------------|

e|-------------------------|--0--------------------------|
B|--------------0---1---3--|------3---1---0---1-------0--|
G|----------2--------------|----------------------2------|
D|------2------------------|-----------------------------|
A|--0----------------------|-----------------------------|
E|-------------------------|-----------------------------|


1st Verse


L.R.---------------------------------------------------------|

e|------------------0----------|------------------0----------|
B|--------------3-----------3--|--------------3--------------|
G|----------0-----------0------|----------0---------------0--|
D|------2----------------------|------0---------------0------|
A|--3--------------------------|--2--------------------------|
E|-----------------------------|-----------------------------|

L.R.----------------------------------------------------|

e|-------------------------|--0--------------------------|
B|--------------0---1---3--|------3---1---0---1-------0--|
G|----------2--------------|----------------------2------|
D|------2------------------|-----------------------------|
A|--0----------------------|-----------------------------|
E|-------------------------|-----------------------------|

L.R.---------------------------------------------------------|

e|------------------0----------|------------------0----------|
B|--------------3-----------3--|--------------3--------------|
G|----------0-----------0------|----------0---------------0--|
D|------2----------------------|------0---------------0------|
A|--3--------------------------|--2--------------------------|
E|-----------------------------|-----------------------------|

L.R.--------------------------------------------------|
                                                         /
e|-------------------------|--0-------------------------/-|
B|--------------0---1---3--|------3---1---0---1-------1/--|
G|----------2--------------|----------------------2-------|
D|------2------------------|------------------------------|
A|--0----------------------|------------------------------|
E|-------------------------|------------------------------|

1st Chorus (Over Driven Tone)

e|----------|-----------------|-------------------|--------------------|
B|----12----|-----------------|-------------------|--------------------|
G|----12----|----12-----12----|--10-----------10--|----------10--------|
D|----12----|----12-----12----|--10---10------10--|--10------10---12---|
A|----10----|----10-----10----|--8----10h12-------|--10h12--------12---|
E|----------|-----------------|-------------------|--------------------|

(Clean Tone)

L.R.---------------------------------------------------------|

e|------------------0----------|------------------0----------|
B|--------------3-----------3--|--------------3--------------|
G|----------0-----------0------|----------0---------------0--|
D|------2----------------------|------0---------------0------|
A|--3--------------------------|--2--------------------------|
E|-----------------------------|-----------------------------|

 2nd Bridge (Overdriven Tone)


e|----------------------|---------------------------|-------------------|
B|----------------------|---------------------------|-------------------|
G|--2----2--2--2--2--2--|--2--2--2--2--2--2--2---4--|------5---------5--|
D|--2----2--2--2--2--2--|--2--2--2--2--2--2--2---4--|------5---------5--|
A|--0----0--0--0--0--0--|--0--0--0--0--0--0--0---2--|--0---3-----0---3--|
E|----------------------|---------------------------|-------------------|

e|--------------------|-------------------|--------------------------|
B|--------------------|--0----------------|--------------------------|
G|------5---------5---|--0---2-----0---2--|----------5---------------|
D|------5---------5---|--0---2-----0---2--|----------5-------5---7---|
A|--0---3-----0---3---|--0---0-----0---0--|--5---7-------7---5---7---|
E|--------------------|-------------------|--5---7-------7-----------|

e|-------------------|--------------------|-------------------|-------------|
B|-------------------|--------------------|--0----------------|-------------|
G|------5---------5--|------5---------5---|--0---2-----0---2--|-------------|
D|------5---------5--|------5---------5---|--0---2-----0---2--|----------5--|
A|--0---3-----0---3--|--0---3-----0---3---|--0---0-----0---0--|--5---7---5--|
E|-------------------|--------------------|-------------------|--5---7------|

2nd Verse (Clean Tone)

L.R.---------------------------------------------------------|

e|------------------0----------|------------------0----------|
B|--------------3-----------3--|--------------3--------------|
G|----------0-----------0------|----------0---------------0--|
D|------2----------------------|------0---------------0------|
A|--3--------------------------|--2--------------------------|
E|-----------------------------|-----------------------------|

L.R.----------------------------------------------------|

e|-------------------------|--0--------------------------|
B|--------------0---1---3--|------3---1---0---1-------0--|
G|----------2--------------|----------------------2------|
D|------2------------------|-----------------------------|
A|--0----------------------|-----------------------------|
E|-------------------------|-----------------------------|

L.R.---------------------------------------------------------|

e|------------------0----------|------------------0----------|
B|--------------3-----------3--|--------------3--------------|
G|----------0-----------0------|----------0---------------0--|
D|------2----------------------|------0---------------0------|
A|--3--------------------------|--2--------------------------|
E|-----------------------------|-----------------------------|

  L.R.--------------------------------------------------|
                                                         
e|-------------------------|--0---------------------------|
B|--------------0---1---3--|------3---1---0---1-------0---|
G|----------2--------------|----------------------2-------|
D|------2------------------|------------------------------|
A|--0----------------------|------------------------------|
E|-------------------------|------------------------------|

L.R.---------------------------------------------------------|

e|------------------0----------|------------------0----------|
B|--------------3-----------3--|--------------3--------------|
G|----------0-----------0------|----------0---------------0--|
D|------2----------------------|------0---------------0------|
A|--3--------------------------|--2--------------------------|
E|-----------------------------|-----------------------------|

L.R.--------------------------------------------------------------------|

e|----0-0-0----|--0-----------0------------|------------------0----------|
B|----1/3\1----|------1---------------0h1--|--------------3-----------3--|
G|----2/4\2----|----------2-------2--------|----------0-----------0------|
D|----2/4\2----|---------------------------|------2----------------------|
A|----0-0-0----|---------------------------|--3--------------------------|
E|-------------|---------------------------|-----------------------------|

L.R.-----------------------------------------------------|

e|------------------0----------|-------------------------|
B|--------------3--------------|--------------0---1---3--|
G|----------0---------------0--|----------2--------------|
D|------0---------------0------|------2------------------|
A|--2--------------------------|--0----------------------|
E|-----------------------------|-------------------------|

L.R.----------------------------|
                                                         
e|--0---------------------------|
B|------3---1---0---1-------0---|
G|----------------------2-------|
D|------------------------------|
A|------------------------------|
E|------------------------------|

1st Chorus (Over Driven Tone)

e|----------|----------|----------------|----------------|-------|-------|
B|----12----|----------|----------------|----------------|-------|-------|
G|----12----|----12----|--10------------|----------------|-------|-------|
D|----12----|----12----|--10---10-------|--------10------|-------|-------|
A|----10----|----10----|--8----10h12----|--10h12---------|---3---|---2---|
E|----------|----------|----------------|----------------|-------|-------|

                            L.R.-------|

e|-------|---------|-------|--1------------|--3----3--3--3--|--3----3--3--3--|
B|-------|---------|-------|--1---------1--|--3----3--3--3--|--3----3--3-----|
G|-------|---2h4---|---2---|--2---0h2------|--0----0--0--0--|--0----0--0-----|
D|-------|---------|-------|--3------------|--0----0--0--0--|--0----0--0-----|
A|---0---|---------|-------|--3------------|--2-------------|--2-------------|
E|-------|---------|-------|---------------|--3-------------|--3-------------|

(Clean Tone)

L.R.-----------------------------------| (Over Driven Tone)

e|--------------0--|--------------0-----|-----------|
B|----------3------|----------3---------|-----------|
G|------0----------|------0-------------|----0h2----|
D|-----------------|--------------------|----0h2----|
A|--3--------------|--2-----------------|----0-0----|
E|-----------------|--------------------|-----------|

Lead In To Solo
e|-------------------------------|-------------------|
B|-------------------------------|------8---10b---8--|
G|----------------------------7--|--9----------------|
D|------------------5---7/9------|-------------------|
A|----------5---7----------------|-------------------|
E|--5---7------------------------|-------------------|

Main Solo
e|-----------------|-----------------|-----------------|
B|-----------------|-----------------|-----------------|
G|--x---5-------5--|------4-------4--|--0---2---0---2--|
D|--x---5-------5--|------5-------5--|--0---2---0---2--|
A|--x---3---0---3--|--0---0---0---0--|--0---0---0---0--|
E|-----------------|-----------------|-----------------|

e|-------------------------|-----------------|-----------------|
B|-------------------------|-----------------|-----------------|
G|-------------------------|------5-------5--|------4-------4--|
D|----------5-------5---7--|------5-------5--|------5-------5--|
A|--5---7---5---7---5---7--|--0---3---0---3--|--0---0---0---0--|
E|--5---7-------7----------|-----------------|-----------------|

e|-----------------|---------------|-----------------|-----------------|
B|-----------------|---------------|-----------------|-----------------|
G|--0---2---0---2--|--2----2----2--|------5-------5--|------4-------4--|
D|--0---2---0---2--|--2----2----2--|------5-------5--|------5-------5--|
A|--0---0---0---0--|--0----0----0--|--0---3---0---3--|--0---0---0---0--|
E|-----------------|---------------|-----------------|-----------------|

e|-----------------|-------------------------|-----------------|
B|-----------------|-------------------------|-----------------|
G|--0---2---0---2--|-------------------------|------5-------5--|
D|--0---2---0---2--|----------5-------5---7--|------5-------5--|
A|--0---0---0---0--|--5---7---5---7---5---7--|--0---3---0---3--|
E|-----------------|--5---7-------7----------|-----------------|                

                                           L.R.----------------|

e|-----------------|-----------------|-------------------------|
B|-----------------|-----------------|--1---0-------0-------0--|
G|------4-------4--|--0---2---0---2--|--2-------2-------2------|
D|------5-------5--|--0---2---0---2--|--2----------------------|
A|--0---0---0---0--|--0---0---0---0--|--0----------------------|
E|-----------------|-----------------|-------------------------|

2nd Chorus
                          
                   L.R.----------------------------|

e|-----3-----|--1-------------1--|---------------|---------|---------|
B|-----3-----|--1----------------|--1------------|---------|---------|
G|-----0-----|--2-------1h2------|------1h2------|---------|---------|
D|-----0-----|--3---3------------|------------3--|---------|---------|
A|-----2-----|--3----------------|---------------|----3----|----2----|
E|-----3-----|--1----------------|---------------|---------|---------|

                                  L.R ------------|

e|---------|-----------|---------|--1-------------|--3---3---3----|
B|---------|-----------|---------|--1---------1---|--3---3---3----|
G|---------|----2h4----|----2----|--2---1h2-------|--0---0---0----|
D|---------|-----------|---------|--3-------------|--0---2---0----|
A|----0----|-----------|---------|--3-------------|--2---3---2----|
E|---------|-----------|---------|--1-------------|--3-------3----|

Outro (Clean Tone)

L.R.---------------------------------------------------------|

e|------------------0----------|------------------0----------|
B|--------------3-----------3--|--------------3--------------|
G|----------0-----------0------|----------0---------------0--|
D|------2----------------------|------0---------------0------|
A|--3--------------------------|--2--------------------------|
E|-----------------------------|-----------------------------|

L.R.----------------------------------------------------|

e|-------------------------|--0--------------------------|
B|--------------0---1---3--|------3---1---0---1-------0--|
G|----------2--------------|----------------------2------|
D|------2------------------|-----------------------------|
A|--0----------------------|-----------------------------|
E|-------------------------|-----------------------------|


L.R.---------------------------------------------------------|

e|------------------0----------|------------------0----------|
B|--------------3-----------3--|--------------3--------------|
G|----------0-----------0------|----------0---------------0--|
D|------2----------------------|------0---------------0------|
A|--3--------------------------|--2--------------------------|
E|-----------------------------|-----------------------------|

L.R.----------------------------------------------------|

e|-------------------------|--0--------------------------|
B|--------------0---1---3--|------3---1---0---1-------0--|
G|----------2--------------|----------------------2------|
D|------2------------------|-----------------------------|
A|--0----------------------|-----------------------------|
E|-------------------------|-----------------------------|

L.R.---------------------------------------------------------|

e|------------------0----------|------------------0----------|
B|--------------3-----------3--|--------------3--------------|
G|----------0-----------0------|----------0---------------0--|
D|------2----------------------|------0---------------0------|
A|--3--------------------------|--2--------------------------|
E|-----------------------------|-----------------------------|

L.R.----------------------------------------------------|

e|-------------------------|--0--------------------------|
B|--------------0---1---3--|------3---1---0---1-------0--|
G|----------2--------------|----------------------2------|
D|------2------------------|-----------------------------|
A|--0----------------------|-----------------------------|
E|-------------------------|-----------------------------|

L.R.---------------------------------------------------------|

e|------------------0----------|------------------0----------|
B|--------------3-----------3--|--------------3--------------|
G|----------0-----------0------|----------0---------------0--|
D|------2----------------------|------0---------------0------|
A|--3--------------------------|--2--------------------------|
E|-----------------------------|-----------------------------|

L.R.----------------------------------------------------|

e|-------------------------|--0--------------------------|
B|--------------0---1---3--|------3---1---0---1-------0--|
G|----------2--------------|----------------------2------|
D|------2------------------|-----------------------------|
A|--0----------------------|-----------------------------|
E|-------------------------|-----------------------------|

L.R.---------------------------------------------------------|

e|------------------0----------|------------------0----------|
B|--------------3-----------3--|--------------3--------------|
G|----------0-----------0------|----------0---------------0--|
D|------2----------------------|------0---------------0------|
A|--3--------------------------|--2--------------------------|
E|-----------------------------|-----------------------------|

L.R.----------------------------------------------------|

e|-------------------------|--0--------------------------|
B|--------------0---1---3--|------3---1---0---1-------0--|
G|----------2--------------|----------------------2------|
D|------2------------------|-----------------------------|
A|--0----------------------|-----------------------------|
E|-------------------------|-----------------------------|

L.R.---------------------------------------------------------|

e|------------------0----------|------------------0----------|
B|--------------3-----------3--|--------------3--------------|
G|----------0-----------0------|----------0---------------0--|
D|------2----------------------|------0---------------0------|
A|--3--------------------------|--2--------------------------|
E|-----------------------------|-----------------------------|

L.R.----------------------------------------------------|
                                                      Fade Out
e|-------------------------|--0--------------------------|
B|--------------0---1---3--|------3---1---0---1-------0--|
G|----------2--------------|----------------------2------|
D|------2------------------|-----------------------------|
A|--0----------------------|-----------------------------|
E|-------------------------|-----------------------------|

Guitar III (over Dubs)

1st Chorus

L.R.-----------------|

e|--1----------------|--0--------------------------|
B|--1---------1---3--|------3---1---0---1-------0--|
G|--2---0h2----------|----------------------2------|
D|--3----------------|-----------------------------|
A|--3----------------|-----------------------------|
E|-------------------|-----------------------------|

2nd Chorus

L.R.-------------------------------------------------------------------------|
                                                                    (Clean Tone)        
e|--1----------------|--0--------------------------|------------------0-----0|
B|--1---------1---3--|------3---1---0---1-------0--|------1-------3------3---|
G|--2---0h2----------|----------------------2------|----------0--------------|
D|--3----------------|-----------------------------|-------------------------|
A|--3----------------|-----------------------------|--3----------------------|
E|-------------------|-----------------------------|-------------------------|

L.R.---------------------------------------------------------|

e|------------------0----------|--------------------------3--|
B|--------------3-------3------|--------------3---1----------|
G|------0-------------------0--|------2---------------0------|
D|----------0------------------|----------2------------------|
A|--2--------------------------|--0--------------------------|
E|-----------------------------|-----------------------------|


L.R.------------------|
                                          (Over Driven Tone)
e|--3---0----------------------|----1----|
B|----------3---3---1-------0--|----1----|
G|----------------------0------|----2----|
D|-----------------------------|----3----|
A|----------------------0---2--|----3----|
E|-----------------------------|----1----|

Solo

e|-----------------|-----------------8--|-----------------5--|
B|----8b-----8b----|--8---8brb---5------|--8br---5---8b------|
G|-----------------|--------------------|--------------------|
D|-----------------|--------------------|--------------------|
A|-----------------|--------------------|--------------------|
E|-----------------|--------------------|--------------------|

e|--------------------------|---------------------5------|
B|--1pbr---8---10---8---10--|-------------------------8--|
G|--------------------------|--7br---5---7---7b----------|
D|--------------------------|----------------------------|
A|--------------------------|----------------------------|
E|--------------------------|----------------------------|

e|---------------------------|-----------------------|----------------13--15-|
B|---------------------------|--3/5------------------|-8------13--15b--------|
G|--7br---5---7---5----------|--------5-----------9--|----14-----------------|
D|--------------------7---5--|------------7---5------|-----------------------|
A|---------------------------|-----------------------|-----------------------|
E|---------------------------|-----------------------|-----------------------|

e|--------------15----------|--------------------------|--15b---15---15b---15|
B|--15b---15b--------15pbr--|--13---15---13---15---13--|---------------------|
G|--------------------------|--------------------------|---------------------|
D|--------------------------|--------------------------|---------------------|
A|--------------------------|--------------------------|---------------------|
E|--------------------------|--------------------------|---------------------|

e|--15b---15b---15b---15br---12---15--|--12---15--------------------|
B|------------------------------------|------------15pbr---13---15--|
G|------------------------------------|-----------------------------|
D|------------------------------------|-----------------------------|
A|------------------------------------|-----------------------------|
E|------------------------------------|-----------------------------|

e|----------------|-------5------|---------------------------|---------|
B|--13--------13--|--8b-------8--|--5------------------------|---------|
G|-------14-------|--------------|------7---5---7---7br---5--|----7----|
D|----------------|--------------|---------------------------|---------|
A|----------------|--------------|---------------------------|---------|
E|----------------|--------------|---------------------------|---------|

L.R.---------------------------------------------------------|

e|------------------0----------|------------------0----------|
B|------1-------3-------3------|--------------3-------3------|
G|----------0---------------0--|------0-------------------0--|
D|-----------------------------|----------0------------------|
A|--3--------------------------|--2--------------------------|
E|-----------------------------|-----------------------------|

L.R.-----------------------------------------------|
                                                                                (Over Driven)
e|--------------------------3--|--3---0----------------------|----1----|
B|--------------3---1----------|----------3---3---1-------0--|----1----|
G|------2---------------0------|----------------------0------|----2----|
D|----------2------------------|-----------------------------|----3----|
A|--0--------------------------|----------------------0---2--|----3----|
E|-----------------------------|-----------------------------|----1----|

************************************

| /   slide up
| \   slide down
| h   hammer-on
| p   pull-off
| ~   vibrato
| +   harmonic
| x   Mute note
| b   Bend
| pb  Pre-bend
| br  Bend release
| pbr Pre-bend release
| brb Bend release bend

************************************
Intro

C  Em7  Am  Asus  Am  Aadd9  Am

C  Em7  Am  Asus  Am  Aadd9  Am

C              Em7            Am  Asus  Am  Aadd9  Am
  The time has come for me to say 

C          Em7                A             B
 things I should have said oh oh Yesterday 


1st Bridge

A  C  A  C   

A  C  A  C

A11  A  A11  A

A11  E  G  E  G   A

A  C  A  C   

A  C  A  C

A11  A  A11  A

A11  E  G

C  Em7  Am  Asus  Am  Aadd9  Am

C  Em7  Am  Asus  Am  Aadd9  Am

1st Verse


C               Em7                      Am    Asus  Am  Aadd9  Am
  Some people I knew thought they had it made 

C             Em7                        Am   Asus  Am  Aadd9  Am
 forgot their friends when they hit the stage 


1st Chorus

G                        F
 and they didn't seem to care 


      C               Em7             A      
Oh oh their eyes were blinded by the glare 

2nd Bridge

A  C  A  C   

A  C  A  C

A11  A  A11  A

A11  E  G  E  G   A

A  C  A  C   

A  C  A  C

A11  A  A11  A

A11  E  G

C  Em7  Am  Asus  Am  Aadd9  Am

2nd Verse

C                   Em7                          Am Asus  Am  Aadd9  Am
  Well I knew those boys when they were down and out 

C                     Em7                   Am  Asus  Am  Aadd9  Am
  it looked like the world had turned them down 

C           Em7                Am  Bm  Am
   now everybody knows their name 

C          Em7              Am  Asus  Am  Aadd9  Am
  guess to them it's just a game 

2nd Chorus

G                                F
 they got their money and their cars 

     C    Em7              A    G  F
Ooo Lord   I guess their stars 

                                G
you know sometimes it's hard to see 

C                    Em7              A11  A
  your friends ain't what they always 

N.C.
seem to be 

Lead in to solo

N.C

Solo

A  C  A  C   

A  C  A  C

A11  A  A11  A

A11  E  G  E  G   A

A  C  A  C   

A  C  A  C

A11  A  A11  A

A  C  A  C   

A  C  A  C

A11  A  A11  A

A11  E  G  E  G   A

A  C  A  C   

A  C  A  C

A11  A  A11  A  Am

3rd Chorus

G                          F
 If by chance I don't get through 

     C              Em7            A   G  F
Oh oh they won't be comin home to you 


                    G
by now I hope they realize 

C              Em7              Am  Asus  Am  Aadd9  Am
  whats in my heart and not my eyes 


C              Em7           Am  Asus  Am  Aadd9  Am
 oh it's in my heart not my eyes 

C                    Em7              Am  Asus  Am  Aadd9  Am
  Ooh oh whats in my heart and not my eyes   

C        Em7       Am  Asus  Am  Aadd9  Am
   Yeah Yeah only stars yeah! 

C          Em7     Am  Asus  Am  Aadd9  Am
 Oh They're only stars Who oh oh

Fade Out
Добавлено: 11.08.2013
Другие материалы по этой песне:

Страница создана 25.05.2012
http://primanota.ru/blackfoot/stars-chords.htm
Привет, Гость.
Предлагаем пройти революционный курс по гитаре.
Подарок от PrimaNota.Ru, забирай!