PrimaNota.ru - самый крупный в мире бесплатный архив песенных текстов, аккордов, табулатур и нот


Blackfoot - Searchin - таба, видео

Регистрация Запомнить меня
Войти через:  Facebook Google Twitter Vk Yandex Mail.ru

Blackfoot - Searchin - таба, видео

Печатать
Просмотров: 81
------------------------------------------------------------------------------
1.                           Searchin'- Blackfoot
2.                               Marauder-1981
3.             Words and Music by Rick Medlocke and Jakson Spires
------------------------------------------------------------------------------
Tabbed by:Duane Baldwin
Email: duaneandjulie@gmail.com
Tuning: Drop D
Guitar I:Intro (Clean Tone) Fade in

 
  Let Ring -----------------------------|             Let Ring -------------|
e|-----------3-----------|---------------------------|-----------3-----------|
B|--3-----3-----3-----3--|--3--------3---3-----------|--3-----------3------3-|
G|--2--2----------2------|--------3------------------|--2-----2--------2-----|
D|--0--------------------|-----0------------0--2--3--|--0--0-----------------|
A|--------------------0--|--1------------3-----------|---------------------0-|
E|-----------------------|---------------------------|-----------------------|


    Let  Ring ------------|       Let  Ring ---------------| 
e|-------------------------------|-----------3-----------|
B|--3--------3---3---3-----------|--3-----3-----3-----3--|
G|--------0----------------------|--2--2----------2------|
D|-----0-------------------------|--0--------------------|
A|--1------------3---0-----------|--------------------0--|
E|-----------------------3qb--0--|-----------------------|
 

  Let  Ring --------|         Let  Ring -------------|
e|---------------------------|-----------3-----------|
B|--3--------3---3-----------|--3-----------3------3-|
G|--------3------------------|--2-----2--------2-----|
D|-----0------------0--2--3--|--0--0-----------------|
A|--1------------3-----------|---------------------0-|
E|---------------------------|-----------------------|

 
 Let  Ring ------------|         Let  Ring ------------| 
e|-------------------------------|-----------3-----------|
B|--3--------3---3---3-----------|--3-----3-----3-----3--|
G|--------0----------------------|--2--2----------2------|
D|-----0-------------------------|--0--------------------|
A|--1------------3---0-----------|--------------------0--|
E|-----------------------3qb--0--|-----------------------|


 Let  Ring -------|          Let  Ring -----------| 
e|---------------------------|-----------3-----------|
B|--3--------3---3-----------|--3-----------3------3-|
G|--------3------------------|--2-----2--------2-----|
D|-----0------------0--2--3--|--0--0-----------------|
A|--1------------3-----------|---------------------0-|
E|---------------------------|-----------------------|


  Let  Ring ----------|          Let  Ring -------------| 
e|-------------------------------|-----------3-----------|
B|--3--------3---3---3-----------|--3-----3-----3-----3--|
G|--------0----------------------|--2--2----------2------|
D|-----0-------------------------|--0--------------------|
A|--1------------3---0-----------|--------------------0--|
E|-----------------------3qb--0--|-----------------------|


  Let  Ring --------|         Let  Ring -------------| 
e|---------------------------|-----------3-----------|
B|--3--------3---3-----------|--3-----------3------3-|
G|--------3------------------|--2-----2--------2-----|
D|-----0------------0--2--3--|--0--0-----------------|
A|--1------------3-----------|---------------------0-|
E|---------------------------|-----------------------|
 

   Let  Ring --------|       Let  Ring -------------| 
e|---------------------------|-----------3-----------|
B|--3--------3---3-----------|--3-----3-----3------3-|
G|--------3------------------|--2--2-----------2-----|
D|-----0------------0--2--3--|--0--------------------|
A|--1------------3-----------|---------------------0-|
E|---------------------------|-----------------------|


 Let  Ring --------|         Let  Ring ------------| 
e|---------------------------|-----------3-----------|
B|--3--------3---3-----------|--3-----------3------3-|
G|--------3------------------|--2-----2--------2-----|
D|-----0------------0--2--3--|--0--0-----------------|
A|--1------------3-----------|---------------------0-|
E|---------------------------|-----------------------|


  Let  Ring ----------|           Let  Ring ------------| 
e|-------------------------------|----------3------------|
B|--3--------3---3---3-----------|--3----------3------3--|
G|--------0----------------------|--2----2--------2------|
D|-----0-------------------------|--0--0-----------------|
A|--1------------3---0-----------|--------------------0--|
E|-----------------------3qb--0--|-----------------------|


   Let  Ring --------|        Let  Ring -------------| 
e|---------------------------|-----------3-----------|
B|--3--------3---3-----------|--3-----------3------3-|
G|--------3------------------|--2-----2--------2-----|
D|-----0------------0--2--3--|--0--0-----------------|
A|--1------------3-----------|---------------------0-|
E|---------------------------|-----------------------|

 
      Let  Ring ------------|            
e|-------------------------------|
B|--3--------3---3---3-----------|
G|--------0----------------------|
D|-----0-------------------------|
A|--1------------3---0-----------|
E|-----------------------3qb--0--|

1st Verse

   Let Ring --|     L.R.                 Let Ring --------| 
e|-----------3--1--|--0h1--3--1--0-----|-----------3----------|
B|--3-----3-----3--|----------------3--|--3-----3-----3-------|
G|-----2--------2--|--2----------------|-----3-----------3/5--|
D|--0-----------0--|-------------------|----------------------|
A|-----------------|-------------------|--1-------------------|
E|-----------------|-------------------|----------------------|

 
    Let Ring ------------------------|             L.R.
e|-----------5--------|-----------3--1--|--0h1--3--1--0-----|
B|--5-----5-----5-----|--3-----3-----3--|----------------3--|
G|-----5-----------5--|-----2--------2--|--2----------------|
D|--------------------|--0-----------0--|-------------------|
A|--3-----------------|-----------------|-------------------|
E|--------------------|-----------------|-------------------|


  Let Ring --------|     Let Ring ------------------------| 
e|-----------3----------|-----------5--------|-----------3--1--|
B|--3-----3-----3-------|--5-----5-----5-----|--3-----3-----3--|
G|-----3-----------3/5--|-----5-----------5--|-----2--------2--|
D|----------------------|--------------------|--0-----------0--|
A|--1-------------------|--3-----------------|-----------------|
E|----------------------|--------------------|-----------------|


  L.R.                Let Ring ----------------------------------| 
e|--0h1--3--1--0-----|-----------3----------|-----------5--------|
B|----------------3--|--3-----3-----3-------|--5-----5-----5-----|
G|--2----------------|-----3-----------3/5--|-----5-----------5--|
D|-------------------|----------------------|--------------------|
A|-------------------|--1-------------------|--3-----------------|
E|-------------------|----------------------|--------------------|


   Let Ring ----------------------------------------------------------| 
e|-----------3-----------|--------------------|-----------1--0--------|
B|--3-----3-----3--------|--3--------3--3-----|--1-----1--------1--1--|
G|-----2-----------2-----|-----3-----------0--|-----0-----------------|
D|--0-----------------0--|--------3-----------|-----------------------|
A|-----------------------|--1-----------------|--3-----------------3--|
E|-----------------------|-----------3--------|-----------------------|


   Let Ring -------------|            
e|--------1--0-----------|
B|-----1--------1--------|
G|--0--------------0-----|
D|-----------------------|
A|--------------------3--|
E|-----------------------|


Guitar fill
 L.R.       L.R.----|      L.R.  L.R.  L.R.
e|-----------3-----------|--------------------------|
B|--3-----3-----3--------|--3--------3--3-----------|
G|--2--2-----------2-----|--------0-----------------|
D|--0--------------------|-----0-----------0--2--3--|
A|--------------------0--|--1-----------3-----------|
E|-----------------------|--------------------------|

  L.R --------------|     L.R.   L.R.  L.R.       L.R.
e|-----------3-----------|----------------------------|
B|--3-----------3--------|--3--------3--3-------------|
G|--2-----2--------2-----|--------0-------------------|
D|--0--0-----------------|-----0----------------------|
A|--------------------0--|--1-----------3--0----------|
E|-----------------------|--------------------3qb--0--|

2nd Verse

   Let Ring --|     L.R.                 Let Ring --------| 
e|-----------3--1--|--0h1--3--1--0-----|-----------3----------|
B|--3-----3-----3--|----------------3--|--3-----3-----3-------|
G|-----2--------2--|--2----------------|-----3-----------3/5--|
D|--0-----------0--|-------------------|----------------------|
A|-----------------|-------------------|--1-------------------|
E|-----------------|-------------------|----------------------|

  Let Ring ------------------------|      L.R.
e|-----------5--------|-----------3--1--|--0h1--3--1--0-----|
B|--5-----5-----5-----|--3-----3-----3--|----------------3--|
G|-----5-----------5--|-----2--------2--|--2----------------|
D|--------------------|--0-----------0--|-------------------|
A|--3-----------------|-----------------|-------------------|
E|--------------------|-----------------|-------------------|

  Let Ring --------|      Let Ring -----------------------| 
e|-----------3----------|-----------5--------|-----------3--1--|
B|--3-----3-----3-------|--5-----5-----5-----|--3-----3-----3--|
G|-----3-----------3/5--|-----5-----------5--|-----2--------2--|
D|----------------------|--------------------|--0-----------0--|
A|--1-------------------|--3-----------------|-----------------|
E|----------------------|--------------------|-----------------|

   L.R.                Let Ring --------------------------------| 
e|--0h1--3--1--0-----|-----------3----------|-----------5--------|
B|----------------3--|--3-----3-----3-------|--5-----5-----5-----|
G|--2----------------|-----3-----------3/5--|-----5-----------5--|
D|-------------------|----------------------|--------------------|
A|-------------------|--1-------------------|--3-----------------|
E|-------------------|----------------------|--------------------|


   Let Ring ----------------------------------| (Overdriven)
e|-----------3-----------|--------------------|-----------------------|
B|--3-----3-----3--------|--3--------3--3-----|-----------------------|
G|-----2-----------2-----|-----3-----------0--|--5--5--5--5--5--5--5--|
D|--0-----------------0--|--------3-----------|--5--5--5--5--5--5--5--|
A|-----------------------|--1-----------------|--3--3--3--3--3--3--3--|
E|-----------------------|-----------3--------|-----------------------|

e|--------------------|
B|--6-----------------|
G|--5--5--5--5--------|
D|--5--5--5--5--3--3--|
A|--3--3--3--3--3--3--|
E|--------------3--3--|

1st Chorus
e|-----------|---------------|-----------------|----------------|
B|-----------|---------------|-----------------|----------------|
G|-----------|--3-------3----|--5--------5-----|--5--5----3/5---|
D|----3------|--3-------3----|--5--------5-----|--5--5----3/5---|
A|----3------|------0---1----|--3--------3-----|--3--3----------|
E|----3------|---------------|-----------------|----------------|

e|-----------|---------------|-----------------|----------------|
B|-----------|---------------|-----------------|----------------|
G|-----------|--3-------3----|--5--------5-----|--5--5----3/5---|
D|----3------|--3-------3----|--5--------5-----|--5--5----3/5---|
A|----3------|------0---1----|--3--------3-----|--3--3----------|
E|----3------|---------------|-----------------|----------------|

e|-----------|---------------|-----------|----------------|
B|-----------|---------------|-----------|----------------|
G|-----------|--3-------3----|-----5-----|--6----6----6---|
D|----3------|--3-------3----|-----5-----|--6----6----6---|
A|----3------|------0---1----|-----3-----|--4----4----4---|
E|----3------|---------------|-----------|----------------|

e|-------------|---------------|
B|-------------|---------------|
G|--7---5------|---3-----------|
D|--7---5------|---3-----3-----|
A|--5---3---0--|---1-----3-----|
E|-------------|---------3-----|

Main Solo
e|--------13---13b--|--13br----------------|-------------------|
B|--13b-------------|--------13--13b--13b--|--13b---13br---10--|
G|------------------|----------------------|-------------------|
D|------------------|----------------------|-------------------|
A|------------------|----------------------|-------------------|
E|------------------|----------------------|-------------------|

e|---------------------------|--------------------|--------------------------|
B|---------------------------|--------------------|--10--13----------------10|
G|--12b---12pbr--10----------|---------------12b--|----------12br--10--12----|
D|-------------------12------|--10--12------------|--------------------------|
A|-----------------------12--|----------12--------|--------------------------|
E|---------------------------|--------------------|--------------------------|

e|-------10--12--13--|--10--13br--12--10--|
B|--13b--------------|--------------------|
G|-------------------|--------------------|
D|-------------------|--------------------|
A|-------------------|--------------------|
E|-------------------|--------------------|

3rd Verse (Clean Tone)

   Let Ring --|     L.R.                 Let Ring --------| 
e|-----------3--1--|--0h1--3--1--0-----|-----------3----------|
B|--------3-----3--|----------------3--|--3-----3-----3-------|
G|-----2--------2--|--2----------------|-----3-----------3/5--|
D|--------------0--|-------------------|----------------------|
A|-----------------|-------------------|--1-------------------|
E|-----------------|-------------------|----------------------|

     Let Ring ------------------------|             L.R.
e|-----------5--------|-----------3--1--|--0h1--3--1--0-----|
B|--5-----5-----5-----|--3-----3-----3--|----------------3--|
G|-----5-----------5--|-----2--------2--|--2----------------|
D|--------------------|--0-----------0--|-------------------|
A|--3-----------------|-----------------|-------------------|
E|--------------------|-----------------|-------------------|

  Let Ring --------|            Let Ring -----------------------| 
e|-----------3----------|-----------5--------|-----------3--1--|
B|--3-----3-----3-------|--5-----5-----5-----|--3-----3-----3--|
G|-----3-----------3/5--|-----5-----------5--|-----2--------2--|
D|----------------------|--------------------|--0-----------0--|
A|--1-------------------|--3-----------------|-----------------|
E|----------------------|--------------------|-----------------|

   L.R.               Let Ring --------------------------------| 
e|--0h1--3--1--0-----|-----------3----------|-----------5--------|
B|----------------3--|--3-----3-----3-------|--5-----5-----5-----|
G|--2----------------|-----3-----------3/5--|-----5-----------5--|
D|-------------------|----------------------|--------------------|
A|-------------------|--1-------------------|--3-----------------|
E|-------------------|----------------------|--------------------|


   Let Ring ----------------------------------| (Overdriven tone)
e|-----------3-----------|--------------------|-----------------------|
B|--3-----3-----3--------|--3--------3--3-----|-----------------------|
G|-----2-----------2-----|-----3-----------0--|--5--5--5--5--5--5--5--|
D|--0-----------------0--|--------3-----------|--5--5--5--5--5--5--5--|
A|-----------------------|--1-----------------|--3--3--3--3--3--3--3--|
E|-----------------------|-----------3--------|-----------------------|

e|--------------------|
B|--6-----------------|
G|--5--5--5--5--------|
D|--5--5--5--5--3--3--|
A|--3--3--3--3--3--3--|
E|--------------3--3--|

2nd Chorus
e|-----------|---------------|-----------------|----------------|
B|-----------|---------------|-----------------|----------------|
G|-----------|--3-------3----|--5--------5-----|--5--5----3/5---|
D|----3------|--3-------3----|--5--------5-----|--5--5----3/5---|
A|----3------|------0---1----|--3--------3-----|--3--3----------|
E|----3------|---------------|-----------------|----------------|

e|-----------|---------------|-----------------|----------------|
B|-----------|---------------|-----------------|----------------|
G|-----------|--3-------3----|--5--------5-----|--5--5----3/5---|
D|----3------|--3-------3----|--5--------5-----|--5--5----3/5---|
A|----3------|------0---1----|--3--------3-----|--3--3----------|
E|----3------|---------------|-----------------|----------------|

e|-----------|---------------|-----------------|----------------|
B|-----------|---------------|-----------------|----------------|
G|-----------|--3-------3----|--5--------5-----|--5--5----3/5---|
D|----3------|--3-------3----|--5--------5-----|--5--5----3/5---|
A|----3------|------0---1----|--3--------3-----|--3--3----------|
E|----3------|---------------|-----------------|----------------|

e|-----------|---------------|-----------|------------|-------------|
B|-----------|---------------|-----------|------------|-------------|
G|-----------|--3-------3----|-----5-----|-----6------|--7---5------|
D|----3------|--3-------3----|-----5-----|-----6------|--7---5------|
A|----3------|------0---1----|-----3-----|-----4------|--5---3---0--|
E|----3------|---------------|-----------|------------|-------------|

e|---------------|
B|---------------|
G|---3-----------|
D|---3-----3-----|
A|---1-----3-----|
E|---------3-----| 

Bridge (Clean Tone)
            L.R.
e|----1----|---------------------|---------|-------------------------|
B|----3----|--3------------------|---------|-------------------------|
G|----2----|---------------------|---------|------0-------0-------0--|
D|----0----|------------0--2--3--|----0----|-------------------------|
A|---------|--1---1--3-----------|---------|-------------------------|
E|---------|---------------------|---------|--5-------3-------2------|

            L.R.
e|---------|---------------------|---------|-------------------------|
B|---------|--3------------------|---------|-------------------------|
G|---------|---------------------|---------|------0-------0-------0--|
D|---------|------------0--2--3--|----0----|-------------------------|
A|---------|--1---1--3-----------|---------|-------------------------|
E|----0----|---------------------|---------|--5-------3-------2------|


Outro Solo (Over Driven Tone)
e|-----------------|-----------------------|----------------|
B|--------6--------|-----------------------|----------------|
G|--5h7------7-----|-----------------------|----------------|
D|--------------7--|--5--5b--5pb--5pbr--3--|-----3h5--3--0--|
A|-----------------|-----------------------|--5-------------|
E|-----------------|-----------------------|----------------|

e|-----------------------------|-----------------------|
B|-----------------------------|--------------6-----6--|
G|--------------------------5--|--7--7--5--7-----7-----|
D|--5b--5pb--5pbr--3--5--7-----|-----------------------|
A|-----------------------------|-----------------------|
E|-----------------------------|-----------------------|

e|-----------------------------|------8------8------8------8-----------|
B|--8b--8pb--8pbr--6--8--8--6--|--8b-----8b-----8b-----8b-----8pbr--6--|
G|-----------------------------|---------------------------------------|
D|-----------------------------|---------------------------------------|
A|-----------------------------|---------------------------------------|
E|-----------------------------|---------------------------------------|

e|--8--------------------------|--------------------------------------|
B|-----8br--6h8p6----------10--|--13b--13b--13--10--13b--13b--13--10--|
G|-----------------7--/12------|--------------------------------------|
D|-----------------------------|--------------------------------------|
A|-----------------------------|--------------------------------------|
E|-----------------------------|--------------------------------------|

e|------------------------------------------|
B|-------13-------------------------10--13--|
G|--12b------12br--10------12--/12----------|
D|---------------------12-------------------|
A|------------------------------------------|
E|------------------------------------------|

e|--------------------------------------|--13br--10------10--10------|
B|--13b--13b--13--10--13b--13b--13--10--|------------13----------10--|
G|--------------------------------------|----------------------------|
D|--------------------------------------|----------------------------|
A|--------------------------------------|----------------------------|
E|--------------------------------------|----------------------------|

e|13p10------13p10------13p10------13p10------13p10------13p10------13p10----|
B|-------10---------10---------10---------10---------10---------10---------10|
G|---------------------------------------------------------------------------|
D|---------------------------------------------------------------------------|
A|---------------------------------------------------------------------------|
E|---------------------------------------------------------------------------|

e|13p10------13p10------13p10------13p10------13p10------13p10------13p10----|
B|-------10---------10---------10---------10---------10---------10---------10|
G|---------------------------------------------------------------------------|
D|---------------------------------------------------------------------------|
A|---------------------------------------------------------------------------|
E|---------------------------------------------------------------------------|

e|13p10------13p10------|----------------------------------------------| 
B|-------10---------10--|--13p10------13p10------13p10------13p10------| 
G|----------------------|---------10---------10---------10---------10--| 
D|----------------------|----------------------------------------------| 
A|----------------------|----------------------------------------------| 
E|----------------------|----------------------------------------------| 

e|----------------------------------------------|
B|--13p10------13p10------13p10------13p10------|
G|---------10---------10---------10---------10--|
D|----------------------------------------------|
A|----------------------------------------------|
E|----------------------------------------------|

e|-------------------------------------------------|
B|-------13-------13-------13-------13--13----13\--|
G|--12b------12b------12b------12b------12br--10\--|
D|-------------------------------------------------|
A|-------------------------------------------------|
E|-------------------------------------------------|

e|------------|------------|------------|--------------|
B|------------|------------|------------|--------------|
G|--7-----7---|--5-----5---|--4-----4---|----3----5----|
D|--7-----7---|--5-----5---|--4-----4---|----3----5----|
A|--5---0h5---|--3---0h3---|--2---0h2---|----1----3----|
E|------------|------------|------------|--------------|

e|------------|------------|------------|--------------|
B|------------|------------|------------|--------------|
G|--7-----7---|--5-----5---|--4-----4---|----3----5----|
D|--7-----7---|--5-----5---|--4-----4---|----3----5----|
A|--5---0h5---|--3---0h3---|--2---0h2---|----1----3----|
E|------------|------------|------------|--------------|

e|------------------|------------------|----------------------------------|
B|-------6----------|--------6--8--6---|--------6--8b--8pb--8pb--8pbr--6--|
G|--5h7-----7-------|--5--7------------|--7--7----------------------------|
D|-------------7\5--|------------------|----------------------------------|
A|------------------|------------------|----------------------------------|
E|------------------|------------------|----------------------------------|

e|------8-----------------|---------------|------------------|--------------|
B|--8b-----8br--6--8------|---------------|------------------|--------------|
G|------------------------|--7----7-------|--3---5-----------|---7-----7----|
D|---------------------2--|--7----7-------|--3---5--0--2--3--|---7-----7----|
A|---------------------2--|--5----5----0--|--1---3-----------|---5-----5----|
E|---------------------2--|--0------------|------------------|--------------|

e|---------------13------|----------------------------13------15p13-------|
B|----------/13------13--|--13h15--13h15--15--13--15------15---------15---|
G|-----------------------|------------------------------------------------|
D|--5---3----------------|------------------------------------------------|
A|--5---3----------------|------------------------------------------------|
E|--5---3----------------|------------------------------------------------|

e|--15b--15pb--15pbr--13------------------------|
B|------------------------15b--15pb--15pbr--13--|
G|----------------------------------------------|
D|----------------------------------------------|
A|----------------------------------------------|
E|----------------------------------------------|

e|-------15-------15-------15-------15-------------|
B|--15b------15b------15b------15b------15pbr--13--|
G|-------------------------------------------------|
D|-------------------------------------------------|
A|-------------------------------------------------|
E|-------------------------------------------------|

e|--------------------------------13------|------------------------12---12---|
B|--15p13--15p13--------------13------13--|--13h15--13h15--15--13--15b--15b--|
G|----------------14--10--12--------------|----------------------------------|
D|----------------------------------------|----------------------------------|
A|----------------------------------------|----------------------------------|
E|----------------------------------------|----------------------------------|

e|--12---12-----------------10------|----------------------------------------|
B|--15b--15b--13--13\-----------10--|--13p10------10p8------8--8--6----------|
G|---------------------/12----------|---------12--------10-----------7--5--7-|
D|----------------------------------|----------------------------------------|
A|----------------------------------|----------------------------------------|
E|----------------------------------|----------------------------------------|

e|-----------------------|-----------|-----------|-----------|--------------|
B|-----------------------|-----------|-----------|-----------|--------------|
G|-----------------------|--7-----7--|--5-----5--|--4-----4--|----3----5----|
D|--7\5--3--5p3-----3h5--|--7-----7--|--5-----5--|--4-----4--|----3----5----|
A|---------------5-------|--5---0h5--|--3---0h3--|--2---0h2--|----1----3----|
E|-----------------------|-----------|-----------|-----------|--------------|

e|------------|------------|------------|--------------|--------|
B|------------|------------|------------|--------------|--------|
G|--7-----7---|--5-----5---|--4-----4---|----3----5----|--7-----|
D|--7-----7---|--5-----5---|--4-----4---|----3----5----|--7-----|
A|--5---0h5---|--3---0h3---|--2---0h2---|----1----3----|--5-----|
E|------------|------------|------------|--------------|--------|

e|-----------|----------|
B|-----------|----------|
G|-----7-----|----7-----|
D|-----7-----|----7-----|
A|-----5-----|----5-----|
E|-----------|----------|

Guitar II (clean tone) Fade In
Intro
e|-------------|-------------------------|-------------|---------------------|
B|-------------|-------------------------|-------------|---------------------|
G|-------------|-------------------------|-------------|---------------------|
D|---0---------|--------------0---2---3--|---0---------|---------------------|
A|---------0---|--1---1---3--------------|---------0---|--1---1---3---0------|
E|-------------|-------------------------|-------------|------------------3b-|

e|-------------|-------------------------|-------------|---------------------|
B|-------------|-------------------------|-------------|---------------------|
G|-------------|-------------------------|-------------|---------------------|
D|-------------|--------------0---2---3--|---0---------|---------------------|
A|---------0---|--1---1---3--------------|---------0---|--1---1---3---0------|
E|---0---------|-------------------------|-------------|------------------3b-|

e|-------------|-------------------------|-------------|---------------------|
B|-------------|-------------------------|-------------|---------------------|
G|-------------|-------------------------|-------------|---------------------|
D|-------------|--------------0---2---3--|---0---------|---------------------|
A|---------0---|--1---1---3--------------|---------0---|--1---1---3---0------|
E|---0---------|-------------------------|-------------|------------------3b-| 

e|-------------|----------------------|-------------|----------------------|
B|-------------|--------------5---6---|-------------|--------------5---6---|
G|----------3--|--3---3---5/7---------|---7-----3---|--3---3---5/7---------|
D|-------------|----------------------|-------------|----------------------|
A|-------------|----------------------|-------------|----------------------|
E|---0---------|----------------------|-------------|----------------------|

e|--------------|------------------------|-------------|---------------------|
B|--------------|------------------------|-------------|---------------5---6-|
G|---7-----2/3--|---3---5---2------------|---------3---|--3---3---5/7--------|
D|--------------|---------------3--------|-------------|---------------------|
A|--------------|------------------------|-------------|---------------------|
E|--------------|-------------------3b---|---0---------|---------------------|

e|--------------|------------------------|
B|--------------|------------------------|
G|---7-----2/3--|---3---5---2------------|
D|--------------|---------------3--------|
A|--------------|------------------------|
E|--------------|-------------------3b---|

1st Verse
   Let Ring --|     L.R.                 Let Ring --------| 
e|-----------3--1--|--0h1--3--1--------|-----------3-----------|
B|--3-----3-----3--|-------------------|--3-----3-----3-----3--|
G|-----2--------2--|--2----------------|-----0-----------0-----|
D|--------------0--|-------------------|-----------------------|
A|-----------------|----------------0--|--1--------------------|
E|--0--------------|-------------------|-----------------------|

  L.R.    L.R.                        L.R.---------|     L.R.   
e|-----------------------------------|-----------3--1--|--0h1--3--1--0-----|
B|--------------3--------------------|--3-----3-----3--|----------------3--|
G|--0-------0-------5----------------|-----2--------2--|--2----------------|
D|------0----------------------------|--0-----------0--|-------------------|
A|--3-------------------3b---0-------|-----------------|-------------------|
E|-------------------------------3b--|-----------------|-------------------|

  Let Ring --------|       L.R.   L.R.                    L.R.---------|
e|-----------3-----------|--------------------------------|-----------3--1--|
B|--3-----3-----3-----3--|--------------3-----------------|--3-----3-----3--|
G|-----0-----------0-----|--0-------0------5--------------|-----2--------2--|
D|-----------------------|------0-------------------------|--0-----------0--|
A|--1--------------------|--3------------------3b--0------|-----------------|
E|-----------------------|----------------------------3b--|-----------------|

   L.R.               Let Ring --------|      L.R.    L.R.
e|--0h1--3--1--------|-----------3-----------|-------------------------------|
B|-------------------|--3-----3-----3-----3--|------------3------------------|
G|--2----------------|-----0-----------0-----|--0------0-----5---------------|
D|-------------------|-----------------------|------0------------------------|
A|----------------0--|--1--------------------|--3----------------3b--0-------|
E|-------------------|-----------------------|---------------------------3b--|

  Let Ring -----------------------------------------------------------|
e|-----------------------|--------------------|-----------0-----------|
B|--3--------3-----------|--3--------3--3-----|--1-----1-----1--------|
G|--------2-----2-----2--|-----3-----------0--|-----0-----------2-----|
D|--0--0-----------0-----|--------3-----------|--------------------2--|
A|-----------------------|--1-----------------|--3--------------------|
E|-----------------------|-----------3--------|-----------------------|

e|--------0-----------|
B|-----1-----1--------|
G|--0-----------2-----|
D|-----------------0--|
A|--3-----------------|
E|--------------------|

Fill
e|-----------------|----------------------------------|-------------------|
B|-----------------|----------------------------------|-----------10--13--|
G|--9h10----9------|--10--12--12b--12pbr--10----------|--12b--------------|
D|-------------12--|--------------------------12--10--|-------------------|
A|-----------------|----------------------------------|-------------------|
E|-----------------|----------------------------------|-------------------|

e|------------------------------------|--------------|
B|----------------10------------------|-----13b------|
G|--12br--10--12------10--------------|--------------|
D|------------------------12--10------|--------------|
A|--------------------------------12--|--------------|
E|------------------------------------|--------------|

2nd Verse
   L.R.                Let Ring --------| 
e|--0h1--3--1--------|-----------3-----------|
B|-------------------|--3-----3-----3-----3--|
G|--2----------------|-----0-----------0-----|
D|-------------------|-----------------------|
A|----------------0--|--1--------------------|
E|-------------------|-----------------------|

  L.R.    L.R.                        L.R.-------|       L.R.   
e|-----------------------------------|-----------3--1--|--0h1--3--1--0-----|
B|--------------3--------------------|--3-----3-----3--|----------------3--|
G|--0-------0-------5----------------|-----2--------2--|--2----------------|
D|------0----------------------------|--0-----------0--|-------------------|
A|--3-------------------3b---0-------|-----------------|-------------------|
E|-------------------------------3b--|-----------------|-------------------|

 Let Ring --------|        L.R.   L.R.                     L.R.---------|
e|-----------3-----------|--------------------------------|-----------3--1--|
B|--3-----3-----3-----3--|--------------3-----------------|--3-----3-----3--|
G|-----0-----------0-----|--0-------0------5--------------|-----2--------2--|
D|-----------------------|------0-------------------------|--0-----------0--|
A|--1--------------------|--3------------------3b--0------|-----------------|
E|-----------------------|----------------------------3b--|-----------------|

   L.R.               Let Ring --------|      L.R.    L.R.
e|--0h1--3--1--------|-----------3-----------|-------------------------------|
B|-------------------|--3-----3-----3-----3--|------------3------------------|
G|--2----------------|-----0-----------0-----|--0------0-----5---------------|
D|-------------------|-----------------------|------0------------------------|
A|----------------0--|--1--------------------|--3----------------3b--0-------|
E|-------------------|-----------------------|---------------------------3b--|

  Let Ring ----------------------------------|
e|-----------------------|--------------------|-----------------------|
B|--3--------3-----------|--3--------3--3-----|-----------------------|
G|--------2-----2-----2--|-----3-----------0--|--5--5--5--5--5--5--5--|
D|--0--0-----------0-----|--------3-----------|--5--5--5--5--5--5--5--|
A|-----------------------|--1-----------------|--3--3--3--3--3--3--3--|
E|-----------------------|-----------3--------|-----------------------|

e|--------------------------|
B|--6-----------------------|
G|--5----5---5---5----------|
D|--5----5---5---5---3---3--|
A|--3----3---3---3---3---3--|
E|-------------------3---3--|

1st Chorus

e|-----------|---------------|-----------------|----------------|
B|-----------|---------------|-----------------|----------------|
G|-----------|--3-------3----|--5--------5-----|--5--5----3/5---|
D|----3------|--3-------3----|--5--------5-----|--5--5----3/5---|
A|----3------|------0---1----|--3--------3-----|--3--3----------|
E|----3------|---------------|-----------------|----------------|

e|-----------|---------------|-----------------|----------------|
B|-----------|---------------|-----------------|----------------|
G|-----------|--3-------3----|--5--------5-----|--5--5----3/5---|
D|----3------|--3-------3----|--5--------5-----|--5--5----3/5---|
A|----3------|------0---1----|--3--------3-----|--3--3----------|
E|----3------|---------------|-----------------|----------------|

e|-----------|---------------|-----------|----------------|
B|-----------|---------------|-----------|----------------|
G|-----------|--3-------3----|-----5-----|--6----6----6---|
D|----3------|--3-------3----|-----5-----|--6----6----6---|
A|----3------|------0---1----|-----3-----|--4----4----4---|
E|----3------|---------------|-----------|----------------|

e|-------------|---------------| 
B|-------------|---------------|
G|--7---5------|---3-----------|
D|--7---5------|---3-----3-----|
A|--5---3---0--|---1-----3-----|
E|-------------|---------3-----|

Main Solo (Clean Tone)

  L.R.      L.R.---|      L.R.-----|   L.R.          L.R.       L.R.--------|
e|-----------3-----------|--------------------------|-----------3-----------|
B|--3-----3-----3--------|--3--------3--3-----------|--3-----3-----3--------|
G|--2--2-----------2-----|--------0-----------------|--2--2-----------2-----|
D|--0--------------------|-----0-----------0--2--3--|--0--------------------|
A|--------------------0--|--1-----------3-----------|-----------------------|
E|-----------------------|--------------------------|-----------------------|

 L.R.-----------------------|       L.R.-----|    L.R.-----|   L.R.
e|-----------------------|-----------3-----------|--------------------------|
B|--3--3-----3--3--------|--3-----3-----3--------|--3--------3--3-----------|
G|--------0--------0-----|--2--2-----------2-----|--------0-----------------|
D|-----------------------|--0--------------------|-----0-----------0--2--3--|
A|-----------------------|--------------------0--|--1-----------3-----------|
E|--3--------2--------0--|-----------------------|--------------------------|

   L.R.     L.R.---------------------------------|
e|-----------3-----------|-----------------------|
B|--3-----3-----3--------|--3--3-----3--3--------|
G|--2--2-----------2-----|--------0--------0-----|
D|--0--------------------|-----------------------|
A|-----------------------|-----------------------|
E|-----------------------|--3--------2--------0--|

3rd Verse
   Let Ring --|     L.R.                 Let Ring --------| 
e|-----------3--1--|--0h1--3--1--------|-----------3-----------|
B|--3-----3-----3--|-------------------|--3-----3-----3-----3--|
G|-----2--------2--|--2----------------|-----0-----------0-----|
D|--------------0--|-------------------|-----------------------|
A|-----------------|----------------0--|--1--------------------|
E|--0--------------|-------------------|-----------------------|

  L.R.    L.R.                        L.R.-------|       L.R.
e|-----------------------------------|-----------3--1--|--0h1--3--1--0-----|
B|--------------3--------------------|--3-----3-----3--|----------------3--|
G|--0-------0-------5----------------|-----2--------2--|--2----------------|
D|------0----------------------------|--0-----------0--|-------------------|
A|--3-------------------3b---0-------|-----------------|-------------------|
E|-------------------------------3b--|-----------------|-------------------|


 Let Ring --------|        L.R.   L.R.                      L.R. ----|       
e|-----------3-----------|--------------------------------|-----------3--1--|
B|--3-----3-----3-----3--|--------------3-----------------|--3-----3-----3--|
G|-----0-----------0-----|--0-------0------5--------------|-----2--------2--|
D|-----------------------|------0-------------------------|--0-----------0--|
A|--1--------------------|--3------------------3b--0------|-----------------|
E|-----------------------|----------------------------3b--|-----------------|

   L.R.               Let Ring --------|      L.R.    L.R.
e|--0h1--3--1--------|-----------3-----------|-------------------------------|
B|-------------------|--3-----3-----3-----3--|------------3------------------|
G|--2----------------|-----0-----------0-----|--0------0-----5---------------|
D|-------------------|-----------------------|------0------------------------|
A|----------------0--|--1--------------------|--3----------------3b--0-------|
E|-------------------|-----------------------|---------------------------3b--|

  Let Ring ----------------------------------| (Over driven Tone)
e|-----------------------|--------------------|-----------------------|
B|--3--------3-----------|--3--------3--3-----|-----------------------|
G|--------2-----2-----2--|-----3-----------0--|--5--5--5--5--5--5--5--|
D|--0--0-----------0-----|--------3-----------|--5--5--5--5--5--5--5--|
A|-----------------------|--1-----------------|--3--3--3--3--3--3--3--|
E|-----------------------|-----------3--------|-----------------------| 

e|--------------------------|
B|--6-----------------------|
G|--5----5---5---5----------|
D|--5----5---5---5---3---3--|
A|--3----3---3---3---3---3--|
E|-------------------3---3--|

2nd Chorus
e|-----------|---------------|-----------------|----------------|
B|-----------|---------------|-----------------|----------------|
G|-----------|--3-------3----|--5--------5-----|--5--5----3/5---|
D|----3------|--3-------3----|--5--------5-----|--5--5----3/5---|
A|----3------|------0---1----|--3--------3-----|--3--3----------|
E|----3------|---------------|-----------------|----------------|

e|-----------|---------------|-----------------|----------------|
B|-----------|---------------|-----------------|----------------|
G|-----------|--3-------3----|--5--------5-----|--5--5----3/5---|
D|----3------|--3-------3----|--5--------5-----|--5--5----3/5---|
A|----3------|------0---1----|--3--------3-----|--3--3----------|
E|----3------|---------------|-----------------|----------------|

e|-----------|---------------|-----------------|----------------|
B|-----------|---------------|-----------------|----------------|
G|-----------|--3-------3----|--5--------5-----|--5--5----3/5---|
D|----3------|--3-------3----|--5--------5-----|--5--5----3/5---|
A|----3------|------0---1----|--3--------3-----|--3--3----------|
E|----3------|---------------|-----------------|----------------|

e|-----------|---------------|-----------|--------------|
B|-----------|---------------|-----------|--------------|
G|-----------|--3-------3----|-----5-----|------6-------|
D|----3------|--3-------3----|-----5-----|------6-------|
A|----3------|------0---1----|-----3-----|------4-------|
E|----3------|---------------|-----------|--------------|

e|-------------|---------------| 
B|-------------|---------------|
G|--7---5------|---3-----------|
D|--7---5------|---3-----3-----|
A|--5---3---0--|---1-----3-----|
E|-------------|---------3-----|

Bridge (Clean Tone)
  
  L.R.----------------|     L.R.--------|           L.R.----------------|
e|-----------3p1-----------|-----------------------|-----------3p1-----------|
B|--3--3----------3--------|--3--3-----3-----------|--3--3----------3--------|
G|--------2----------2-----|--------0--------------|--------2----------2-----|
D|--0-------------------0--|--------------0--2--3--|--0-------------------0--|
A|-------------------------|--1--------3-----------|-------------------------|
E|-------------------------|-----------------------|-------------------------|

 L.R.---------|                     L.R.----------------|
e|---------------------------------|-----------3p1-----------|
B|--------3------------3--------3--|--3--3----------3--------|
G|-----2-----2---------------------|--------2----------2-----|
D|--0-----------0------------------|--0-------------------0--|
A|---------------------------------|-------------------------|
E|-----------------3-------2-------|-------------------------|

   L.R.--------|             L.R.----------------|
e|-----------------------|-----------3p1-----------|
B|--3--3-----3-----------|--3--3----------3--------|
G|--------0--------------|--------2----------2-----|
D|--------------0--2--3--|--0-------------------0--|
A|--1--------3-----------|-------------------------|
E|-----------------------|-------------------------|

L.R.---------|                     
e|---------------------------------|
B|--------3------------3--------3--|
G|-----2-----2---------------------|
D|--0-----------0------------------|
A|---------------------------------|
E|-----------------3-------2-------|

Outro (Over driven )
e|--------------|------------------|-------------|----------------|
B|--------------|------------------|-------------|----------------|
G|--7---7-------|--3---5-----------|--7-----7----|----------------|
D|--7---7-------|--3---5--0--2--3--|--7-----7----|--5----3----2---|
A|--5---5---0---|--1---3-----------|--5-----5----|--5----3----2---|
E|--------------|------------------|-------------|--5----3----2---|

e|--------------|------------------|-------------|----------------|
B|--------------|------------------|-------------|----------------|
G|--7---7-------|--3---5-----------|--7-----7----|----------------|
D|--7---7-------|--3---5--0--2--3--|--7-----7----|--5----3----2---|
A|--5---5---0---|--1---3-----------|--5-----5----|--5----3----2---|
E|--0-----------|------------------|-------------|--5----3----2---|

e|--------------|------------------|-------------|----------------|
B|--------------|------------------|-------------|----------------|
G|--7---7-------|--3---5-----------|--7-----7----|----------------|
D|--7---7-------|--3---5--0--2--3--|--7-----7----|--5----3----2---|
A|--5---5---0---|--1---3-----------|--5-----5----|--5----3----2---|
E|--0-----------|------------------|-------------|--5----3----2---|

e|--------------|------------------|-------------|----------------|
B|--------------|------------------|-------------|----------------|
G|--7---7-------|--3---5-----------|--7-----7----|----------------|
D|--7---7-------|--3---5--0--2--3--|--7-----7----|--5----3----2---|
A|--5---5---0---|--1---3-----------|--5-----5----|--5----3----2---|
E|--0-----------|------------------|-------------|--5----3----2---|

e|-----------------15----------|-----------------15----------|
B|--18b--18b--18b------18--15--|--18b--18b--18b------18--15--|
G|-----------------------------|-----------------------------|
D|-----------------------------|-----------------------------|
A|-----------------------------|-----------------------------|
E|-----------------------------|-----------------------------|

e|------18-------15---------|------------------------------------------------|
B|-18b------18b------18--15-|------18----------------------------------------|
G|--------------------------|-17b------17pb--15--18--17--15------17--15----14|
D|--------------------------|--------------------------------17---------17---|
A|--------------------------|------------------------------------------------|
E|--------------------------|------------------------------------------------|

e|-----------------15----------|-------18-------15----------|
B|--18b--18b--18b------18--15--|--18b------18b------18--15--|
G|-----------------------------|----------------------------|
D|-----------------------------|----------------------------|
A|-----------------------------|----------------------------|
E|-----------------------------|----------------------------|

e|--18b--18--17--15--------------|-------------------------------------------|
B|-------------------18--17--15--|--15p13------13--11------------------------|
G|-------------------------------|---------15----------12--12p10------10-----|
D|-------------------------------|--------------------------------12------12-|
A|-------------------------------|-------------------------------------------|
E|-------------------------------|-------------------------------------------|

e|--------------|------------------|-------------|-------------------|
B|--------------|------------------|-------------|----------------6--|
G|--7---7-------|--3---5-----------|--7-----7----|------------/7-----|
D|--7---7-------|--3---5--0--2--3--|--7-----7----|--5----3-----------|
A|--5---5---0---|--1---3-----------|--5-----5----|--5----3-----------|
E|--------------|------------------|-------------|--5----3-----------|


e|----------------------------8p5--|-----8b--8pb--8pbr--5--8--------13------|
B|--------------6-----8p5----------|--8------------------------/13------13--|
G|--7--7--5--7-----7-------7-------|----------------------------------------|
D|---------------------------------|----------------------------------------|
A|---------------------------------|----------------------------------------|
E|---------------------------------|----------------------------------------|

e|--10--10-------------------------|----------------------------|
B|----------13---------------------|----------------------------|
G|--------------12--10--12p10------|--12b--12pbr--10--12--------|
D|-----------------------------12--|------------------------2---|
A|---------------------------------|------------------------2---|
E|---------------------------------|------------------------2---|

e|--------------|------------------|-------------|----------------|
B|--------------|------------------|-------------|----------------|
G|--7---7-------|--3---5-----------|--7-----7----|----------------|
D|--7---7-------|--3---5--0--2--3--|--7-----7----|--5----3----2---|
A|--5---5---0---|--1---3-----------|--5-----5----|--5----3----2---|
E|--------------|------------------|-------------|--5----3----2---|

e|--------------|------------------|-------------|----------------|
B|--------------|------------------|-------------|----------------|
G|--7---7-------|--3---5-----------|--7-----7----|----------------|
D|--7---7-------|--3---5--0--2--3--|--7-----7----|--5----3----2---|
A|--5---5---0---|--1---3-----------|--5-----5----|--5----3----2---|
E|--0-----------|------------------|-------------|--5----3----2---|

e|-------10----------------------|--------------------------|
B|-----------13b--13b--13br--10--|--13b--13b--15br------13--|
G|--/11--------------------------|------------------14------|
D|-------------------------------|--------------------------|
A|-------------------------------|--------------------------|
E|-------------------------------|--------------------------|

e|-----------------13b--15p13------|--12hb--12hpbr--10---------|
B|--15p13------13--------------15--|--------------------13p10--|
G|---------14----------------------|---------------------------|
D|---------------------------------|---------------------------|
A|---------------------------------|---------------------------|
E|---------------------------------|---------------------------|

e|-----------10---------------------------------------|
B|-------10------13p10--13p10------10-----------------|
G|--12b------------------------12------12p10------10--|
D|--------------------------------------------12------|
A|----------------------------------------------------|
E|----------------------------------------------------|

e|-------------------------------------------------|
B|-----------------------------------------10------|
G|--12------10-------------10--12p10--12b------12--|
D|------12------12--12p10--------------------------|
A|-------------------------------------------------|
E|-------------------------------------------------|

e|-----------------10------10--13p10------13p10------10--|
B|--10--13p10--13------13-------------13---------13------|
G|-------------------------------------------------------|
D|-------------------------------------------------------|
A|-------------------------------------------------------|
E|-------------------------------------------------------|

e|--13b--13pbr--10----------|------------------8p5-----5-------------|
B|------------------13--10--|--13b--13pbr--10-------8-----8p6-----6--|
G|--------------------------|----------------------------------7-----|
D|--------------------------|----------------------------------------|
A|--------------------------|----------------------------------------|
E|--------------------------|----------------------------------------|

e|-----------------------------------|---------|-----------|-----------|
B|-----------------------------------|---------|-----------|-----------|
G|--7p5--5----------5----------------|----7----|----7------|----7------|
D|----------7\5--7-----7\5--3--5--3--|---------|----7------|----7------|
A|-----------------------------------|---------|----5------|----5------|
E|-----------------------------------|---------|-----------|-----------|

Guitar III (Over driven)

Fills
e|--------------|--------------|--------------|--------------|
B|--8br--6--8b--|--------------|--------------|--8br--6--8b--|
G|--------------|--------------|--------------|--------------|
D|--------------|--------------|--------------|--------------|
A|--------------|--------------|--------------|--------------|
E|--------------|--------------|--------------|--------------|

Chorus (Clean tone)
                    Let Ring -----------------------------------|
e|-----------1--1--|--1--1-----------------|--1--------1--------|
B|-----------1--1--|--1-----1-----1--------|-----1--------1-----|
G|-----------2--2--|--2--------2-----2-----|--------2--------2--|
D|-----------3--3--|--3-----------------3--|--------------------|
A|-----------3--3--|--3--------------------|--------------------|
E|-----------1--1--|--1--------------------|--------------------|

  L.R.----------------------------------------------------------------|
e|--0--0-----------------|--0--------0--------|--1--1-----------------|
B|--1-----1-----1--------|-----1--------1-----|--1-----1-----1--------|
G|--0--------0-----0-----|--------0--------0--|--2--------2-----2-----|
D|--2-----------------2--|--------------------|--3-----------------3--|
A|--3--------------------|--------------------|--3--------------------|
E|-----------------------|--------------------|--1--------------------|

 Let Ring ---------------------------------------------------------|
e|--1--------1--------|--0--0-----------------|--0--------0--------|
B|-----1--------1-----|--1-----1-----1--------|-----1--------1-----|
G|--------2--------2--|--0--------0-----0-----|--------0--------0--|
D|--------------------|--2-----------------2--|--------------------|
A|--------------------|--3--------------------|--------------------|
E|--------------------|-----------------------|--------------------|

 Let Ring ---------------------------------------------------------|
e|--1--1-----------------|--1--------1--------|--0--------0--------|
B|--1-----1-----1--------|-----1--------1-----|--1-----1-----1-----|
G|--2--------2-----2-----|--------2--------2--|--0--0-----------0--|
D|--3-----------------3--|--------------------|--2-----------------|
A|--3--------------------|--------------------|--3-----------------|
E|--1--------------------|--------------------|--------------------|

  Let Ring ----------|
e|--------------------|--2-----0--------|--------1---1----------|
B|--2--------1--------|--3-----1--------|--3-----1-------1------|
G|--0-----0-----0-----|--2-----0--------|--3-----2-----------2--|
D|--3--3-----------3--|--0-----2--------|--3-----3--------------|
A|--4-----------------|--------3-----0--|--1-----3--------------|
E|--------------------|-----------------|-----------------------|

Bridge (Clean tone)

  L.R.    L.R.------------|    L.R.      L.R.-----|
e|--------------3p1-----------|-----------------------------|
B|--3-----3----------3--------|--3--------3-----3-----------|
G|-----2-----2----------2-----|--------2-----0--------------|
D|--0----------------------0--|-----0--------------0--2--3--|
A|----------------------------|--1--------------3-----------|
E|----------------------------|-----------------------------|

  L.R.    L.R.------------|     L.R.-------|
e|--------------3p1-----------|----------------------------------------|
B|--3-----3----------3--------|--------3----------------3-----------3--|
G|-----2-----2----------2-----|-----2-----2----------2-----------2-----|
D|--0----------------------0--|--0-----------0-------------------------|
A|----------------------------|------------------------------5---------|
E|----------------------------|------------------3---------------------|


  L.R.    L.R.------------|    L.R.      L.R.-----|
e|--------------3p1-----------|-----------------------------|
B|--3-----3----------3--------|--3--------3-----3-----------|
G|-----2-----2----------2-----|--------2-----0--------------|
D|--0----------------------0--|-----0--------------0--2--3--|
A|----------------------------|--1--------------3-----------|
E|----------------------------|-----------------------------|

  L.R.    L.R.------------|     L.R.-------|
e|--------------3p1-----------|----------------------------------------|
B|--3-----3----------3--------|--------3----------------3-----------3--|
G|-----2-----2----------2-----|-----2-----2----------2-----------2-----|
D|--0----------------------0--|--0-----------0-------------------------|
A|----------------------------|------------------------------5---------|
E|----------------------------|------------------3---------------------|

************************************
| /   slide up
| \   slide down
| h   hammer-on
| p   pull-off
| ~   vibrato
| +   harmonic
| x   Mute note
| b   Bend
| pb  Pre-bend
| br  Bend release
| pbr Pre-bend release
| brb Bend release bend
| L.R. Let Ring
************************************
Intro

N.C.

1st Verse

         Dm
Well I'm walkin' 

     Bb             C
on a road that ends when I'm gone 

         Dm
lord I'm runnin' yeah 

     Bb               C
from all the things I fear the most 

  Dm
I need some direction 

   Bb       C             Dm    Bb
on how that I can find my life 

         F         C             Dm       Bb  C  Dm  Bb  C
well I'm just like you lord I'm searchin' 

2nd Verse

           Dm
Well they tell me 

       Bb             C
that a man must crawl before he can walk 

         Dm       Bb
yes they told me 

                  C                    Dm
oh you got to cry before you can talk 

                               Bb               C        Dm
Ive done me enough crawlin' it made me moan and cry out loud 

Bb       F      C    C6  C
are you with me now? 

F         Bb
Searchin' 

C
for the life you can not find 

F        Bb
Searchin'  

C
for the one you left behind 

F                  Bb
gotta give me a reason 

C                   C#                    D        C  A  Bb
show me your light stand up and fight for yourself 

    F
Oh are you searchin'? 

Main solo

Dm   Bb  Dm  F  E

Dm   Bb  Dm  F  E

3rd Verse
         Dm 
Can you remember? 

     Bb                 C
When you were young you had your fun 

          Dm
and your first love 

Bb                      C            Dm
stole your heart maybe tore it apart 


and did you pick up the pieces? 

Bb              C   
right or wrong 

                    Dm    Bb
were you strong to fight? 

           F          C  C6  C
Well I was just like you 

2nd Chorus

          F        Bb
Oh oh oh Searchin' 

 C
for the life you can not find 

F         Bb
Searchin'  

 C
for the one you left behind 

F         Bb
Searchin' 

C
for the one you left behind 

F                      Bb           
gotta give me a reason 

C                  C#                          D   C   A   Bb  F
show me your light stand up and fight for yourself    


Bridge

N.C.
Oooh are you sear-chin'? woe Are you searchin'? baby keep on a searchin'

Outro

D  A   Bb

D  G  F  E

D  A   Bb

D  G  F  E

D  A   Bb

D  G  F  E

D  A   Bb

D  G  F  E

D  A   Bb

D  G  F  E

D  C  B  Bb  C

D  C  B  Bb  C  D
Добавлено: 22.06.2013
Другие материалы по этой песне:

Страница создана 31.05.2012
http://primanota.ru/blackfoot/searchin-chords.htm
Привет, Гость.
Предлагаем пройти революционный курс по гитаре.
Подарок от PrimaNota.Ru, забирай!