PrimaNota.ru - самый крупный в мире бесплатный архив песенных текстов, аккордов, табулатур и нот


Blackfoot - Save Your Time - таба, видео

Регистрация Запомнить меня
Войти через:  Facebook Google Twitter Vk Yandex Mail.ru

Blackfoot - Save Your Time - таба, видео

Печатать
Просмотров: 159
Уроки эстрадного вокала в Санкт-Петербурге
-----------------------------------------------------------------------------
                             Save Your Time- Blackfoot
                                 Flyin' High- 1976
                Words ans Music by Rick Medlocke and Jakson Spiers
-----------------------------------------------------------------------------
Tabbed by: Duane Baldwin
E-mail: duaneandjulie@gmail.com

Tuning: Half step down

Guitar I (Over driven)

Intro

(Drums and Bass)
e|----------------|----------------|----------------|----------------|
B|----------------|----------------|----------------|----------------|
G|----------------|----------------|----------------|----------------|
D|----------------|----------------|----------------|----------------|
A|----------------|----------------|----------------|----------------|
E|----------------|----------------|----------------|----------------|


                                    (Fade In )
e|----------------|----------------|-------------------------------|
B|----------------|----------------|-------------------------------|
G|----------------|----------------|-------------------------------|
D|----------------|----------------|--0--0--2p0h2--4--0--0--2p0h2--|
A|----------------|----------------|-------------------------------|
E|----------------|----------------|-------------------------------|

e|----------------------------|-------------------------|
B|----------------------------|-------------------------|
G|----------------------------|-------------------------|
D|--4p2h4--5--0--0--2p0h2--4--|--0--0--2p0h2--4p2h4--5--|
A|----------------------------|-------------------------|
E|----------------------------|-------------------------|

e|-------------------------------|----------------------------|
B|-------------------------------|----------------------------|
G|-------------------------------|----------------------------|
D|--0--0--2p0h2--4--0--0--2p0h2--|--4p2h4--5--0--0--2p0h2--4--|
A|-------------------------------|----------------------------|
E|-------------------------------|----------------------------|

e|----------------------|
B|----------------------|
G|---------------5---7--|
D|--0--0--2p0h2--5---7--|
A|---------------3---5--|
E|----------------------|

1st Verse

e|-------------------------------|----------------------------|
B|-------------------------------|----------------------------|
G|-------------------------------|----------------------------|
D|--0--0--2p0h2--4--0--0--2p0h2--|--4p2h4--5--0--0--2p0h2--4--|
A|-------------------------------|----------------------------|
E|-------------------------------|----------------------------|

e|-------------------------|-------------------------------|
B|-------------------------|-------------------------------|
G|-------------------------|-------------------------------|
D|--0--0--2p0h2--4p2h4--5--|--0--0--2p0h2--4--0--0--2p0h2--|
A|-------------------------|-------------------------------|
E|-------------------------|-------------------------------|

e|----------------------------|-------------------------|
B|----------------------------|-------------------------|
G|----------------------------|-------------------------|
D|--4p2h4--5--0--0--2p0h2--4--|--0--0--2p0h2--4p2h4--5--|
A|----------------------------|-------------------------|
E|----------------------------|-------------------------|

1st Chorus

e|------------------------1---|-------------------------------|
B|------------------------1---|-------------------------------|
G|--5-------------7---2---2---|-------------------------------|
D|--5-------------7---3-------|--0--0--2p0h2--4--0--0--2p0h2--|
A|--3--0--3p2p0---5---3-------|-------------------------------|
E|--------------------1-------|-------------------------------|

e|----------------------------|----------------------|
B|----------------------------|----------------------|
G|----------------------------|---------------5---7--|
D|--4p2h4--5--0--0--2p0h2--4--|--0--0--2p0h2--5---7--|
A|----------------------------|---------------5---7--|
E|----------------------------|----------------------|

2nd Verse

e|-------------------------------|----------------------------|
B|-------------------------------|----------------------------|
G|-------------------------------|----------------------------|
D|--0--0--2p0h2--4--0--0--2p0h2--|--4p2h4--5--0--0--2p0h2--4--|
A|-------------------------------|----------------------------|
E|-------------------------------|----------------------------|

e|-------------------------|-------------------------------|
B|-------------------------|-------------------------------|
G|-------------------------|-------------------------------|
D|--0--0--2p0h2--4p2h4--5--|--0--0--2p0h2--4--0--0--2p0h2--|
A|-------------------------|-------------------------------|
E|-------------------------|-------------------------------|

e|----------------------------|-------------------------|
B|----------------------------|-------------------------|
G|----------------------------|-------------------------|
D|--4p2h4--5--0--0--2p0h2--4--|--0--0--2p0h2--4p2h4--5--|
A|----------------------------|-------------------------|
E|----------------------------|-------------------------|

2nd Chorus

e|------------------------1---|-------------------------------|
B|------------------------1---|-------------------------------|
G|--5-------------7---2---2---|-------------------------------|
D|--5-------------7---3-------|--0--0--2p0h2--4--0--0--2p0h2--|
A|--3--0--3p2p0---5---3-------|-------------------------------|
E|--------------------1-------|-------------------------------|

e|-----------------------------------1--|-------------------------------|
B|-----------------------------------1--|-------------------------------|
G|--4p2h4--5---5-------------7---2---2--|-------------------------------|
D|-------------5-------------7---3------|--0--0--2p0h2--4--0--0--2p0h2--|
A|-------------3--0--3p2p0---5---3------|-------------------------------|
E|-------------------------------1------|-------------------------------|

e|----------------------------|-------------------------|
B|----------------------------|-------------------------|
G|----------------------------|-------------------------|
D|--4p2h4--5--0--0--2p0h2--4--|--0--0--2p0h2--4p2h4--5--|
A|----------------------------|-------------------------|
E|----------------------------|-------------------------|

 1st Breakdown

e|--3--2--0-----------------------|---------------|
B|-----------3--2--0--------------|---------------|
G|--------------------2--0--------|---------------|
D|--------------------------2--0--|---------------|
A|--------------------------------|---------------|
E|--------------------------------|---------------|

Main Solo

e|-------------------------------|---------------------------------|
B|-------------------------------|---------------------------------|
G|-------------------------------|---------------------------------|
D|--0--0--2p0h2--4--0--0--2p0h2--|--4p2p0----------------2p0h2--4--|
A|-------------------------------|---------2p0---------------------|
E|-------------------------------|--------------3--0--0------------|

e|----------------------|-------------------------------|
B|----------------------|-------------------------------|
G|---------------5---7--|-------------------------------|
D|--0--0--2p0h2--5---7--|--0--0--2p0h2--4--0--0--2p0h2--|
A|---------------3---5--|-------------------------------|
E|----------------------|-------------------------------|

e|---------------------------------|----------------------|
B|---------------------------------|----------------------|
G|---------------------------------|---------------5---7--|
D|--4p2p0----------------2p0h2--4--|--0--0--2p0h2--5---7--|
A|---------2p0---------------------|---------------3---5--|
E|--------------3--0--0------------|----------------------|

e|-------------------------------|---------------------------------|
B|-------------------------------|---------------------------------|
G|-------------------------------|---------------------------------|
D|--0--0--2p0h2--4--0--0--2p0h2--|--4p2p0----------------2p0h2--4--|
A|-------------------------------|---------2p0---------------------|
E|-------------------------------|--------------3--0--0------------|

e|----------------------|-------------------------------|
B|----------------------|-------------------------------|
G|---------------5---7--|-------------------------------|
D|--0--0--2p0h2--5---7--|--0--0--2p0h2--4--0--0--2p0h2--|
A|---------------3---5--|-------------------------------|
E|----------------------|-------------------------------|

e|---------------------------------|----------------------|
B|---------------------------------|----------------------|
G|---------------------------------|---------------5---7--|
D|--4p2p0----------------2p0h2--4--|--0--0--2p0h2--5---7--|
A|---------2p0---------------------|---------------3---5--|
E|--------------3--0--0------------|----------------------|

2nd Breakdown

e|------------------|------------|--12--15p12------14p12------15p12------15b-|
B|--8---8----8---8--|---8---10---|-------------15---------15---------15------|
G|--7---7----7---7--|---7---9----|-------------------------------------------|
D|--6---6----6---6--|---6---8----|-------------------------------------------|
A|--7---7----7---7--|---7---9----|-------------------------------------------|
E|------------------|------------|-------------------------------------------|

e|------------------|------------|--0--3--2--0-------------------------------|
B|--8---8----8---8--|---8---10---|--------------3--2--0----------------------|
G|--7---7----7---7--|---7---9----|-----------------------3--2--0-------------|
D|--6---6----6---6--|---6---8----|--------------------------------2--0-------|
A|--7---7----7---7--|---7---9----|--------------------------------------2----|
E|------------------|------------|-----------------------------------------0-|

third Verse

  (Let ring through the next 4 measures)
e|----0----|---------------|---------------|---------------|---------------|
B|----0----|---------------|---------------|---------------|---------------|
G|---------|---------------|---------------|---------------|---------------|
D|---------|---------------|---------------|---------------|---------------|
A|---------|---------------|---------------|---------------|---------------|
E|---------|---------------|---------------|---------------|---------------|

e|-----0-----|
B|-----0-----|
G|-----1-----|
D|-----2-----|
A|-----2-----|
E|-----0-----|

3rd Chorus

e|------------------------1---|-------------------------------|
B|------------------------1---|-------------------------------|
G|--5-------------7---2---2---|-------------------------------|
D|--5-------------7---3-------|--0--0--2p0h2--4--0--0--2p0h2--|
A|--3--0--3p2p0---5---3-------|-------------------------------|
E|--------------------1-------|-------------------------------|

e|-----------------------------------1--|-------------------------------|
B|-----------------------------------1--|-------------------------------|
G|--4p2h4--5---5-------------7---2---2--|-------------------------------|
D|-------------5-------------7---3------|--0--0--2p0h2--4--0--0--2p0h2--|
A|-------------3--0--3p2p0---5---3------|-------------------------------|
E|-------------------------------1------|-------------------------------|

e|----------------------------|----------------------|
B|----------------------------|----------------------|
G|----------------------------|---------------5---7--|
D|--4p2h4--5--0--0--2p0h2--4--|--0--0--2p0h2--5---7--|
A|----------------------------|---------------3---5--|
E|----------------------------|----------------------|

Outro solo

e|-------------------------------|----------------------------|
B|-------------------------------|----------------------------|
G|-------------------------------|----------------------------|
D|--0--0--2p0h2--4--0--0--2p0h2--|--4p2h4--5--0--0--2p0h2--4--|
A|-------------------------------|----------------------------|
E|-------------------------------|----------------------------|

e|-------------------------|-------------------------------|
B|-------------------------|-------------------------------|
G|-------------------------|-------------------------------|
D|--0--0--2p0h2--4p2h4--5--|--0--0--2p0h2--4--0--0--2p0h2--|
A|-------------------------|-------------------------------|
E|-------------------------|-------------------------------|

e|----------------------------|----------------------|
B|----------------------------|----------------------|
G|----------------------------|---------------5---7--|
D|--4p2h4--5--0--0--2p0h2--4--|--0--0--2p0h2--5---7--|
A|----------------------------|---------------5---7--|
E|----------------------------|----------------------|

e|--------------------------------------|------------------------------------|
B|--------------------------------------|------------------------------------|
G|--------------------------------------|------------------------------------|
D|--------2p0-----4-------0--------2p0--|-----5p4p2---------------2p0-----4--|
A|-------------2-----0h2----------------|--2---------5p4p2-------------2-----|
E|--0--0---------------------0--0-------|-------------------0--0-------------|

e|--------------------------------|--------------------------------------|
B|--------------------------------|--------------------------------------|
G|-------------------------5---7--|--------------------------------------|
D|-------0--------2p0------5---7--|--------2p0-----4-------0--------2p0--|
A|--0h2----------------2---3---5--|-------------2-----0h2----------------|
E|----------0--0------------------|--0--0---------------------0--0-------|

e|------------------------------------|--------------------------------|
B|------------------------------------|--------------------------------|
G|------------------------------------|-------------------------5---7--|
D|-----5p4p2---------------2p0-----4--|-------0--------2p0------5---7--|
A|--2---------5p4p2-------------2-----|--0h2----------------2---3---5--|
E|-------------------0--0-------------|----------0--0------------------|

e|--------------------------------------|------------------------------------|
B|--------------------------------------|------------------------------------|
G|--------------------------------------|------------------------------------|
D|--------2p0-----4-------0--------2p0--|-----5p4p2---------------2p0-----4--|
A|-------------2-----0h2----------------|--2---------5p4p2-------------2-----|
E|--0--0---------------------0--0-------|-------------------0--0-------------|

e|--------------------------------|--------------------------------------|
B|--------------------------------|--------------------------------------|
G|-------------------------5---7--|--------------------------------------|
D|-------0--------2p0------5---7--|--------2p0-----4-------0--------2p0--|
A|--0h2----------------2---3---5--|-------------2-----0h2----------------|
E|----------0--0------------------|--0--0---------------------0--0-------|

e|------------------------------------|--------------------------------|
B|------------------------------------|--------------------------------|
G|------------------------------------|-------------------------5---7--|
D|-----5p4p2---------------2p0-----4--|-------0--------2p0------5---7--|
A|--2---------5p4p2-------------2-----|--0h2----------------2---3---5--|
E|-------------------0--0-------------|----------0--0------------------|

e|--------------------------------------|------------------------------------|
B|--------------------------------------|------------------------------------|
G|--------------------------------------|------------------------------------|
D|--------2p0-----4-------0--------2p0--|-----5p4p2---------------2p0-----4--|
A|-------------2-----0h2----------------|--2---------5p4p2-------------2-----|
E|--0--0---------------------0--0-------|-------------------0--0-------------|

e|--------------------------------|--------------------------------------|
B|--------------------------------|--------------------------------------|
G|-------------------------5---7--|--------------------------------------|
D|-------0--------2p0------5---7--|--------2p0-----4-------0--------2p0--|
A|--0h2----------------2---3---5--|-------------2-----0h2----------------|
E|----------0--0------------------|--0--0---------------------0--0-------|

e|------------------------------------|--------------------------------|
B|------------------------------------|--------------------------------|
G|------------------------------------|-------------------------5---7--|
D|-----5p4p2---------------2p0-----4--|-------0--------2p0------5---7--|
A|--2---------5p4p2-------------2-----|--0h2----------------2---3---5--|
E|-------------------0--0-------------|----------0--0------------------|

e|--------------------------------------|------------------------------------|
B|--------------------------------------|------------------------------------|
G|--------------------------------------|------------------------------------|
D|--------2p0-----4-------0--------2p0--|-----5p4p2---------------2p0-----4--|
A|-------------2-----0h2----------------|--2---------5p4p2-------------2-----|
E|--0--0---------------------0--0-------|-------------------0--0-------------|

            (Fade Out)
e|--------------------------------|
B|--------------------------------|
G|-------------------------5---7--|
D|-------0--------2p0------5---7--|
A|--0h2----------------2---3---5--|
E|----------0--0------------------|

Guitar II (Over driven)

Intro

(Drums and Bass)
e|----------------|----------------|----------------|----------------|
B|----------------|----------------|----------------|----------------|
G|----------------|----------------|----------------|----------------|
D|----------------|----------------|----------------|----------------|
A|----------------|----------------|----------------|----------------|
E|----------------|----------------|----------------|----------------|


                          (Fade In )Let low E ring
e|----------------|----------------|-------------------------------|
B|----------------|----------------|-------------------------------|
G|----------------|----------------|-----4p2h4--6-----4p2h4--6--7--|
D|----------------|----------------|-------------------------------|
A|----------------|----------------|-------------------------------|
E|----------------|----------------|--0------------0---------------|

e|-------------------------------|-------------------------------|
B|-------------------------------|-------------------------------|
G|-----4p2h4--6-----4p2h4--6--7--|-----4p2h4--6-----4p2h4--6--7--|
D|-------------------------------|-------------------------------|
A|-------------------------------|--2------------2---------------|
E|--0------------0---------------|--0------------0---------------|

e|-------------------------------|
B|-------------------------------|
G|-----4p2h4--6-----4p2h4--5--7--|
D|-------------------------5--7--|
A|--2------------2---------3--5--|
E|--0------------0---------------|

1st Verse

e|-------------------------------|-------------------------------|
B|-------------------------------|-------------------------------|
G|-----4p2h4--6-----4p2h4--6--7--|-----4p2h4--6-----4p2h4--6--7--|
D|-------------------------------|-------------------------------|
A|--2------------2---------------|--2------------2---------------|
E|--0------------0---------------|--0------------0---------------|

e|-------------------------------|-------------------------------|
B|-------------------------------|-------------------------------|
G|-----4p2h4--6-----4p2h4--6--7--|-----4p2h4--6-----4p2h4--6--7--|
D|-------------------------------|-------------------------------|
A|--2------------2---------------|--2------------2---------------|
E|--0------------0---------------|--0------------0---------------|

1st Chorus

e|---------------|-------------------------------|
B|---------------|-------------------------------|
G|--5---7---10---|-----4p2h4--6-----4p2h4--6--7--|
D|--5---7---10---|-------------------------------|
A|--3---5---8----|--2------------2---------------|
E|---------------|--0------------0---------------|

e|-------------------------------|
B|-------------------------------|
G|-----4p2h4--6-----4p2h4--5--7--|
D|-------------------------5--7--|
A|--2------------2---------3--5--|
E|--0------------0---------------|

2nd Verse

e|-------------------------------|-------------------------------|
B|-------------------------------|-------------------------------|
G|-----4p2h4--6-----4p2h4--6--7--|-----4p2h4--6-----4p2h4--6--7--|
D|-------------------------------|-------------------------------|
A|--2------------2---------------|--2------------2---------------|
E|--0------------0---------------|--0------------0---------------|

e|-------------------------------|-------------------------------|
B|-------------------------------|-------------------------------|
G|-----4p2h4--6-----4p2h4--6--7--|-----4p2h4--6-----4p2h4--6--7--|
D|-------------------------------|-------------------------------|
A|--2------------2---------------|--2------------2---------------|
E|--0------------0---------------|--0------------0---------------|

2nd Chorus

e|---------------|-------------------------------|---------------|
B|---------------|-------------------------------|---------------|
G|--5---7---10---|-----4p2h4--6-----4p2h4--6--7--|--5---7---10---|
D|--5---7---10---|-------------------------------|--5---7---10---|
A|--3---5---8----|--2------------2---------------|--3---5---8----|
E|---------------|--0------------0---------------|---------------|

e|-------------------------------|-------------------------------|
B|-------------------------------|-------------------------------|
G|-----4p2h4--6-----4p2h4--6--7--|-----4p2h4--6-----4p2h4--6--7--|
D|-------------------------------|-------------------------------|
A|--2------------2---------------|--2------------2---------------|
E|--0------------0---------------|--0------------0---------------|

 1st Breakdown

e|--3--2--0-----------------------|---------------|
B|-----------3--2--0--------------|---------------|
G|--------------------2--0--------|---------------|
D|--------------------------2--0--|---------------|
A|--------------------------------|---------------|
E|--------------------------------|---------------|

Main Solo

e|-------------------------|-------------------------------|
B|-------------------------|--2p0--------------------------|
G|-----4p2h4--6-----4p2h4--|-------2--2p0--------4p2h2--6--|
D|-------------------------|---------------2---------------|
A|--2------------2---------|------------------2------------|
E|--0------------0---------|------------------0------------|

e|---------------------|-------------------------|
B|---------------------|-------------------------|
G|-----4p2h4---5---7---|-----4p2h4--6-----4p2h4--|
D|-------------5---7---|-------------------------|
A|--2----------3---5---|--2------------2---------|
E|--0------------------|--0------------0---------|

e|-------------------------------|---------------------|
B|--2p0--------------------------|---------------------|
G|-------2--2p0--------4p2h2--6--|-----4p2h4---5---7---|
D|---------------2---------------|-------------5---7---|
A|------------------2------------|--2----------3---5---|
E|------------------0------------|--0------------------|

e|-------------------------|-------------------------------|
B|-------------------------|--2p0--------------------------|
G|-----4p2h4--6-----4p2h4--|-------2--2p0--------4p2h2--6--|
D|-------------------------|---------------2---------------|
A|--2------------2---------|------------------2------------|
E|--0------------0---------|------------------0------------|

e|---------------------|-------------------------|
B|---------------------|-------------------------|
G|-----4p2h4---5---7---|-----4p2h4--6-----4p2h4--|
D|-------------5---7---|-------------------------|
A|--2----------3---5---|--2------------2---------|
E|--0------------------|--0------------0---------|

e|-------------------------------|---------------------|
B|--2p0--------------------------|---------------------|
G|-------2--2p0--------4p2h2--6--|-----4p2h4---5---7---|
D|---------------2---------------|-------------5---7---|
A|------------------2------------|--2----------3---5---|
E|------------------0------------|--0------------------|

2nd Breakdown

e|------------------|------------|-------------------------------------------|
B|--8---8----8---8--|---8---10---|--12--15p12------14p12------15p12------15b-|
G|--7---7----7---7--|---7---9----|-------------14---------14---------14------|
D|--6---6----6---6--|---6---8----|-------------------------------------------|
A|--7---7----7---7--|---7---9----|-------------------------------------------|
E|------------------|------------|-------------------------------------------|

e|------------------|------------|--0--3--2--0-------------------------------|
B|--8---8----8---8--|---8---10---|--------------3--2--0----------------------|
G|--7---7----7---7--|---7---9----|-----------------------3--2--0-------------|
D|--6---6----6---6--|---6---8----|--------------------------------2--0-------|
A|--7---7----7---7--|---7---9----|--------------------------------------2----|
E|------------------|------------|-----------------------------------------0-|

third Verse

  (Let ring through the next 4 measures)
e|----0----|---------------|---------------|---------------|---------------|
B|----0----|---------------|---------------|---------------|---------------|
G|---------|---------------|---------------|---------------|---------------|
D|---------|---------------|---------------|---------------|---------------|
A|---------|---------------|---------------|---------------|---------------|
E|---------|---------------|---------------|---------------|---------------|

e|--------------------------------------|
B|--------------------------------------|
G|--------------------------------------|
D|--------------------------------------|
A|--2--2--2--2--2--2--2--2--2--2--2--2--|
E|--0--0--0--0--0--0--0--0--0--0--0--0--|

3rd Chorus

e|---------------|-------------------------------|---------------|
B|---------------|-------------------------------|---------------|
G|--5---7---10---|-----4p2h4--6-----4p2h4--6--7--|--5---7---10---|
D|--5---7---10---|-------------------------------|--5---7---10---|
A|--3---5---8----|--2------------2---------------|--3---5---8----|
E|---------------|--0------------0---------------|---------------|

e|-------------------------------|---------------------------------|
B|-------------------------------|---------------------------------|
G|-----4p2h4--6-----4p2h4--6--7--|-----4p2h4--6-----4p2h4---5---7--|
D|-------------------------------|--------------------------5---7--|
A|--2------------2---------------|--2------------2----------3---5--|
E|--0------------0---------------|--0------------0-----------------|

Outro solo

e|-------------------------------|-------------------------------|
B|-------------------------------|-------------------------------|
G|-----4p2h4--6-----4p2h4--6--7--|-----4p2h4--6-----4p2h4--6--7--|
D|-------------------------------|-------------------------------|
A|--2------------2---------------|--2------------2---------------|
E|--0------------0---------------|--0------------0---------------|

e|-------------------------------|-------------------------------|
B|-------------------------------|-------------------------------|
G|-----4p2h4--6-----4p2h4--6--7--|-----4p2h4--6-----4p2h4--5--7--|
D|-------------------------------|-------------------------5--7--|
A|--2------------2---------------|--2------------2---------3--5--|
E|--0------------0---------------|--0------------0---------------|

e|--------------------------------|--------------------------------|
B|--5--5--x--x--7--7--x--x--5--5--|--x--x--8--7--5--5--x--x--7-----|
G|--4--4--x--x--6--6--x--x--4--4--|--x--x--7--6--4--4--x--x--6-----|
D|--------------------------------|--------------------------------|
A|--------------------------------|--------------------------------|
E|--------------------------------|--------------------------------|

e|-------------------------------|--------------------------------|
B|--7--x--x--5--5--x--x----------|--5--5--x--x--7--7--x--x--5--5--|
G|--6--x--x--4--4--x--x---5---7--|--4--4--x--x--6--6--x--x--4--4--|
D|------------------------5---7--|--------------------------------|
A|------------------------3---5--|--------------------------------|
E|-------------------------------|--------------------------------|

e|--------------------------------|-------------------------------|
B|--x--x--8--7--5--5--x--x--7-----|--7--x--x--5--5--x--x----------|
G|--x--x--7--6--4--4--x--x--6-----|--6--x--x--4--4--x--x---5---7--|
D|--------------------------------|------------------------5---7--|
A|--------------------------------|------------------------3---5--|
E|--------------------------------|-------------------------------|

e|--------------------------------|--------------------------------|
B|--5--5--x--x--7--7--x--x--5--5--|--x--x--8--7--5--5--x--x--7-----|
G|--4--4--x--x--6--6--x--x--4--4--|--x--x--7--6--4--4--x--x--6-----|
D|--------------------------------|--------------------------------|
A|--------------------------------|--------------------------------|
E|--------------------------------|--------------------------------|

e|-------------------------------|--------------------------------|
B|--7--x--x--5--5--x--x----------|--5--5--x--x--7--7--x--x--5--5--|
G|--6--x--x--4--4--x--x---5---7--|--4--4--x--x--6--6--x--x--4--4--|
D|------------------------5---7--|--------------------------------|
A|------------------------3---5--|--------------------------------|
E|-------------------------------|--------------------------------|

e|--------------------------------|-------------------------------|
B|--x--x--8--7--5--5--x--x--7-----|--7--x--x--5--5--x--x----------|
G|--x--x--7--6--4--4--x--x--6-----|--6--x--x--4--4--x--x---5---7--|
D|--------------------------------|------------------------5---7--|
A|--------------------------------|------------------------3---5--|
E|--------------------------------|-------------------------------|

e|--------------------------------|--------------------------------|
B|--5--5--x--x--7--7--x--x--5--5--|--x--x--8--7--5--5--x--x--7-----|
G|--4--4--x--x--6--6--x--x--4--4--|--x--x--7--6--4--4--x--x--6-----|
D|--------------------------------|--------------------------------|
A|--------------------------------|--------------------------------|
E|--------------------------------|--------------------------------|

e|-------------------------------|--------------------------------|
B|--7--x--x--5--5--x--x----------|--5--5--x--x--7--7--x--x--5--5--|
G|--6--x--x--4--4--x--x---5---7--|--4--4--x--x--6--6--x--x--4--4--|
D|------------------------5---7--|--------------------------------|
A|------------------------3---5--|--------------------------------|
E|-------------------------------|--------------------------------|

e|--------------------------------|-------------------------------|
B|--x--x--8--7--5--5--x--x--7-----|--7--x--x--5--5--x--x----------|
G|--x--x--7--6--4--4--x--x--6-----|--6--x--x--4--4--x--x---5---7--|
D|--------------------------------|------------------------5---7--|
A|--------------------------------|------------------------3---5--|
E|--------------------------------|-------------------------------|

e|--------------------------------|--------------------------------|
B|--5--5--x--x--7--7--x--x--5--5--|--x--x--8--7--5--5--x--x--7-----|
G|--4--4--x--x--6--6--x--x--4--4--|--x--x--7--6--4--4--x--x--6-----|
D|--------------------------------|--------------------------------|
A|--------------------------------|--------------------------------|
E|--------------------------------|--------------------------------|

                  (Fade Out)
e|-------------------------------|
B|--7--x--x--5--5--x--x----------|
G|--6--x--x--4--4--x--x---5---7--|
D|------------------------5---7--|
A|------------------------3---5--|
E|-------------------------------|

Main Solo (Over driven)

e|--------------------------|--9-----------------------------------|
B|--------------------------|-----------------7--8--7--------------|
G|--9b--9b--11p9p7--9b--9b--|-----11p9p7--9b-----------9--7--9--7--|
D|--------------------------|--------------------------------------|
A|--------------------------|--------------------------------------|
E|--------------------------|--------------------------------------|

e|-----------------------------|-------------------------------10--------10--|
B|-----------------8--10br--8--|--14hb--14hb--14hbr--12--14hb------14hb------|
G|-----7--------9--------------|---------------------------------------------|
D|--9-----9--7-----------------|---------------------------------------------|
A|-----------------------------|---------------------------------------------|
E|-----------------------------|---------------------------------------------|

e|-----------------------------|--15------12---------------------------------|
B|--14hb--14hbr--12--15b--15b--|------15------12--15--12-----------12--------|
G|-----------------------------|--------------------------14--14b------12----|
D|-----------------------------|-------------------------------------------14|
A|-----------------------------|---------------------------------------------|
E|-----------------------------|---------------------------------------------|

e|-------------------------------|-------------------------------------------|
B|-------------------------------|----------------------------------------3--|
G|-------------------------------|--------------------0-----2-----0--2/4-----|
D|--7--7p5\4--5p4\2--5--4--2--2--|-----2--0--------2-----2-----2-------------|
A|-------------------------------|--2--------2--0----------------------------|
E|-------------------------------|-------------------------------------------|

e|------------------------------------|---------15b-15pb-15-15b--15-15b-15b--|
B|-------8--------10---------12--15b--|15br--12------------------------------|
G|--7/9-----9/11------11/13-----------|--------------------------------------|
D|------------------------------------|--------------------------------------|
A|------------------------------------|--------------------------------------|
E|------------------------------------|--------------------------------------|

e|--17b--17p15------15--12------12h15p12------12------|
B|--------------17----------15------------15------12--|
G|----------------------------------------------------|
D|----------------------------------------------------|
A|----------------------------------------------------|
E|----------------------------------------------------|

e|-------12-------------------------------------|
B|--15b------12-15------12----------12----------|
G|------------------14------12--14------12------|
D|------------------------------------------14--|
A|----------------------------------------------|
E|----------------------------------------------|


Outro Solo

e|-------------------------------|----------------------------------|
B|--------5p3h5--7--------5p3h5--|--7p5--7--8--------5p3h5--7----/--|
G|--4--4------------4--4---------|-------------4--4----------\--/---|
D|-------------------------------|----------------------------\/----|
A|-------------------------------|----------------------------------|
E|-------------------------------|----------------------------------|

e|--------------------------|----------12p10h12--14----------12p10h12--|
B|--------5p3h5--7p5--7--8--|--12--12----------------12--12------------|
G|--4--4--------------------|------------------------------------------|
D|--------------------------|------------------------------------------|
A|--------------------------|------------------------------------------|
E|--------------------------|------------------------------------------|



e|--14p12h14--15----------12p10h12--14--------|------12p10h12--14p12--15--|
B|----------------12--12--------------\----/--|--12-----------------------|
G|-------------------------------------\--/---|---------------------------|
D|--------------------------------------\/----|---------------------------|
A|--------------------------------------------|---------------------------|
E|--------------------------------------------|---------------------------|

                                P.H. ---------------|
e|---------------------------|----------------------|--------------------|
B|---------------------------|----------------------|-----------------3--|
G|--2b--2b---\--/\--/2b--2b--|--2b--2b--2b--2b--2b--|--0h4------/2/4-----|
D|------------\/--\/---------|----------------------|-----\----/---------|
A|---------------------------|----------------------|------\--/----------|
E|---------------------------|----------------------|-------\/-----------|

e|-----------------5--|----------------------|-------------------------------|
B|-5b--5b--5b--5b-----|--5br--3--5-----------|----------------------------12-|
G|--------------------|-------------4---\----|-0h4p0h4p0h4p0h4------/4/14----|
D|--------------------|------------------\---|-----------------\----/--------|
A|--------------------|-------------------\--|------------------\--/---------|
E|--------------------|--------------------\-|-------------------\/----------|

e|------------------------------------------------|
B|--15b--15b--15--12--15b--15b--15--12--15b--15b--|
G|------------------------------------------------|
D|------------------------------------------------|
A|------------------------------------------------|
E|------------------------------------------------|

e|--------------------------------------------------------------|
B|--15--12--15b--15pbr--15--12--15--14--12--14--12------15------|
G|--------------------------------------------------14------14--|
D|--------------------------------------------------------------|
A|--------------------------------------------------------------|
E|--------------------------------------------------------------|

e|--------------------------------------------|
B|--12----------------------------------------|
G|------15--14--12--14p12------14------12ph+--|
D|-------------------------14------14---------|
A|--------------------------------------------|
E|--------------------------------------------|

e|------------------------------------------------------------------------|
B|------------------------------------------------------------------------|
G|--9/12--12--12--12\11--11--11\9--9--9/11--11--11/12--12--12/14--14--14--|
D|------------------------------------------------------------------------|
A|------------------------------------------------------------------------|
E|------------------------------------------------------------------------|

e|-----------12--15b--15pbr--12------|--12------12--------------------------|
B|-------12----------------------12--|------12------12--15b--15b--15b--15b--|
G|--14b------------------------------|--------------------------------------|
D|-----------------------------------|--------------------------------------|
A|-----------------------------------|--------------------------------------|
E|-----------------------------------|--------------------------------------|

e|--------------17b--17b--17b--17br--15--17--17--|
B|------15--17-----------------------------------|
G|--16-------------------------------------------|
D|-----------------------------------------------|
A|-----------------------------------------------|
E|-----------------------------------------------|

e|--17--15--17--17--15---------------------------|
B|----------------------17br--15--17p15------17--|
G|---------------------------------------16------|
D|-----------------------------------------------|
A|-----------------------------------------------|
E|-----------------------------------------------|

e|---------------------------------------|--------------------------|
B|--15--------------------------------7--|--8--8--7--------7--8--8--|
G|------16\12--14p12------14--12---------|-----------7--------------|
D|--------------------14----------14-----|--------------9-----------|
A|---------------------------------------|--------------------------|
E|---------------------------------------|--------------------------|

e|--------------------------|-------------12------|----------------------|
B|--7--------7--8--7--------|-------9h12------12--|--15b--15br--12--17b--|
G|-----7--------------7-----|--9br----------------|----------------------|
D|--------9--------------9--|---------------------|----------------------|
A|--------------------------|---------------------|----------------------|
E|--------------------------|---------------------|----------------------|

                       (Fade Out)
e|-------------17b--17b--17b--17b--17br--15------|
B|--15pbr--12--------------------------------17--|
G|-----------------------------------------------|
D|-----------------------------------------------|
A|-----------------------------------------------|
E|-----------------------------------------------|


************************************

| /   slide up
| \   slide down
| h   hammer-on
| p   pull-off
| ~   vibrato
| +   harmonic
| x   Mute note
| b   Bend
| pb  Pre-bend
| br  Bend release
| pbr Pre-bend release
| brb Bend release bend

************************************
Intro

N.C. C D

1st Verse

N.C.
Oo I think it's time to think it over 

I think it's time with thoughts of your lover 

love her when she can't stand the pain 

love her when her days are full of strain and you 

1st Chorus

C            D    F          N.C.   C  D
know yes you know that it's so   

2nd Verse

N.C.
Oh I think it's time to think it over 

to spend time with no one but your lover 

be with her in the bad times and the good 

be with her always like you always should and you 

2nd Chorus

C            D    F         N.C.
know yes you know that it's so 

              C             D   F         N.C.
lord you will feel yes you feel that it's real oh no

1st Breakdown

N.C.

Main Solo 

N.C.  C  D

N.C.  C  D

N.C.  C  D

N.C.  C  D

2nd Breakdown

E9  F#9  N.C.

E9  F#9  N.C.

Third Verse

E
Oh I think it's time to think it over 

to spend time with no one but your lover 

be with her in the bad times and the good 

be with her always like you always should and you 


3rd Verse
C            D    F         N.C.
know yes you know that it's so 

              C             D   F         N.C.       C  D
lord you will feel yes you feel that it's real oh no

Outro Solo

N.C.  C  D

E  F#  E  G  F#

E  F#  E  C  D

E  F#  E  G  F#

E  F#  E  C  D

E  F#  E  G  F#

E  F#  E  C  D

E  F#  E  G  F#

E  F#  E  C  D

E  F#  E  G  F#

E  F#  E  C  D

E  F#  E  G  F#

E  F#  E  C  D

E  F#  E  G  F#

E  F#  E  C  D

Fade Out
Добавлено: 03.10.2013
Другие материалы по этой песне:

Страница создана 03.10.2013
http://primanota.ru/blackfoot/save-your-time-chords.htm
Привет, Гость.
Предлагаем пройти революционный курс по гитаре.
Подарок от PrimaNota.Ru, забирай!