PrimaNota.ru - самый крупный в мире бесплатный архив песенных текстов, аккордов, табулатур и нот


Blackfoot - Payin For It - таба, видео

Регистрация Запомнить меня
Войти через:  Facebook Google Twitter Vk Yandex Mail.ru

Blackfoot - Payin For It - таба, видео

Печатать
Просмотров: 96
-----------------------------------------------------------------------------
1.                                                Payin' For It - Blackfoot
2.                                  Maraduer-1981
3.                Words and Music by Rick Medlocke and Jakson Spires
-----------------------------------------------------------------------------
Tabbed by: Duane Baldwin
Email: duaneandjulie@gmail.com

Tuning: Standard

Guitar I (overdriven)

Intro
e|--------------|--------------------3--|-----------------|--------------2-|
B|--------------|--------------------3--|-----------------|--------------3-|
G|--------------|-----2--2--1--------0--|--2--------------|----2--2--1---2-|
D|--------0--2--|-----2--2--2--------0--|--2--------0--2--|----2--2--2---0-|
A|--0--2--------|-----2--2--2--------2--|--0--0--2--------|----2--2--2-----|
E|--------------|--0-----------0--2--3--|-----------------|-0--------------|

e|-----------------|--------------------3--|-----------------|
B|-----------------|--------------------3--|-----------------|
G|--2--------------|-----2--2--1--------0--|--2--------------|
D|--2--------0--2--|-----2--2--2--------0--|--2--------0--2--|
A|--0--0--2--------|-----2--2--2--------2--|--0--0--2--------|
E|-----------------|--0-----------0--2--3--|-----------------|

e|---------------2-|
B|---------------3-|
G|-----2--2--1---2-|
D|-----2--2--2---0-|
A|-----2--2--2-----|
E|-0---------------|

1st Verse
e|-----------------|--------------------3--|-----------------|
B|-----------------|--------------------3--|-----------------|
G|--2--------------|-----2--2--1--------0--|--2--------------|
D|--2--------0--2--|-----2--2--2--------0--|--2--------0--2--|
A|--0--0--2--------|-----2--2--2--------2--|--0--0--2--------|
E|-----------------|--0-----------0--2--3--|-----------------|

e|---------------2--|-----------------|--------------------3--|
B|---------------3--|-----------------|--------------------3--|
G|-----2--2--1---2--|--2--------------|-----2--2--1--------0--|
D|-----2--2--2---0--|--2--------0--2--|-----2--2--2--------0--|
A|-----2--2--2------|--0--0--2--------|-----2--2--2--------2--|
E|-0----------------|-----------------|--0-----------0--2--3--|

e|------------------|---------------2-------|
B|------------------|---------------3-------|
G|--2---------------|-----2--2--1---2---2---|
D|--2--------0--2---|-----2--2--2---0---2---|
A|--0--0--2---------|-----2--2--2-------0---|
E|------------------|-0---------------------|

e|--2--2-------------------|--2--2-------------------|
B|--3--3-------------------|--3--3-------------------|
G|--2--2------2--2------2--|--2--2------2--2------2--|
D|--0--0------2--2------2--|--0--0------2--2------2--|
A|--------3b--0--0--3b--0--|--------3b--0--0--3b--0--|
E|-------------------------|-------------------------|

e|--2--2-----------------|---------------------------------|
B|--3--3-----------------|---------------------------------|
G|--2--2------2--2--3/4--|--4--4--4--4--4--4--------2---2--|
D|--0--0------2--2--3/4--|--4--4--4--4--4--4--------2---2--|
A|--------3b--0--0--1/2--|--2--2--2--2--2--2--14\---0---0--|
E|-----------------------|--------------------14\----------|

2nd solo
e|--------------|--------------------3--|-----------------|---------------2-|
B|--------------|--------------------3--|-----------------|---------------3-|
G|--------------|-----2--2--1--------0--|--2--------------|-----2--2--1---2-|
D|--------0--2--|-----2--2--2--------0--|--2--------0--2--|-----2--2--2---0-|
A|--0--2--------|-----2--2--2--------2--|--0--0--2--------|-----2--2--2-----|
E|--------------|--0-----------0--2--3--|-----------------|-0---------------|

2nd Verse
e|-----------------|--------------------3--|-----------------|
B|-----------------|--------------------3--|-----------------|
G|--2--------------|-----2--2--1--------0--|--2--------------|
D|--2--------0--2--|-----2--2--2--------0--|--2--------0--2--|
A|--0--0--2--------|-----2--2--2--------2--|--0--0--2--------|
E|-----------------|--0-----------0--2--3--|-----------------|

e|---------------2--|-----------------|--------------------3--|
B|---------------3--|-----------------|--------------------3--|
G|-----2--2--1---2--|--2--------------|-----2--2--1--------0--|
D|-----2--2--2---0--|--2--------0--2--|-----2--2--2--------0--|
A|-----2--2--2------|--0--0--2--------|-----2--2--2--------2--|
E|-0----------------|-----------------|--0-----------0--2--3--|

e|------------------|---------------2-------|
B|------------------|---------------3-------|
G|--2---------------|-----2--2--1---2---2---|
D|--2--------0--2---|-----2--2--2---0---2---|
A|--0--0--2---------|-----2--2--2-------0---|
E|------------------|-0---------------------|

e|--2--2----------------------|--2--2----------------------|
B|--3--3----------------------|--3--3----------------------|
G|--2--2------2--2---------2--|--2--2------2--2---------2--|
D|--0--0------2--2---------2--|--0--0------2--2---------2--|
A|--------3b--0--0--0h3p0--0--|--------3b--0--0--0h3p0--0--|
E|----------------------------|----------------------------|

e|--2--2-----------------|--------------------|--------------------3--|
B|--3--3-----------------|--------------------|--------------------3--|
G|--2--2------2--2--3/4--|--4--4--4--4--4--4--|-----2--2--1--------0--|
D|--0--0------2--2--3/4--|--4--4--4--4--4--4--|-----2--2--2--------0--|
A|--------3b--0--0--1/2--|--2--2--2--2--2--2--|-----2--2--2--------2--|
E|-----------------------|--------------------|--0-----------0--2--3--|

e|------------------|---------------2-------|
B|------------------|---------------3-------|
G|--2---------------|-----2--2--1---2---2---|
D|--2--------0--2---|-----2--2--2---0---2---|
A|--0--0--2---------|-----2--2--2-------0---|
E|------------------|-0---------------------|

1st Chorus
e|-----------------|-----------------|------------------|-----------|
B|-----------------|-----------------|------10--10--9\--|-----------|
G|--5--5--5--5--5--|--7--7--7--7--7--|--9---9---9---9\--|--2--2--1--|
D|--5--5--5--5--5--|--7--7--7--7--7--|--9---9---9---9\--|--2--2--2--|
A|--3--3--3--3--3--|--5--5--5--5--5--|--7---------------|--2--2--2--|
E|-----------------|-----------------|--0---------------|-----------|

e|-----------------|-----------------|------------------|
B|-----------------|-----------------|------10--10--9\--|
G|--5--5--5--5--5--|--7--7--7--7--7--|--9---9---9---9\--|
D|--5--5--5--5--5--|--7--7--7--7--7--|--9---9---9---9\--|
A|--3--3--3--3--3--|--5--5--5--5--5--|--7---------------|
E|-----------------|-----------------|--0---------------|

Bridge and solo
             P.M.--------------------|
e|---------|--------------------------|----------------------2--|
B|---------|-----------------------5--|--------------5-------3--|
G|----2----|--2--2--2--2--2--2--4--6--|--4---4---2---6---4---2--|
D|----2----|--2--2--2--2--2--2--4--6--|--4---4---2---6---4---0--|
A|----0----|--0--0--0--0--0--0--2--4--|--2---2---0---4---2------|
E|---------|--------------------------|-------------------------|
       
       P.M. ----------|
e|---------------------|----------------------2------|
B|-----------------5---|--------------5-------3------|
G|--2--2--2--2--4--6---|--4---4---2---6---4---2---2--|
D|--2--2--2--2--4--6---|--4---4---2---6---4---0---2--|
A|--0--0--0--0--2--4---|--2---2---0---4---2-------0--|
E|---------------------|-----------------------------|

2nd Chorus
e|-----------------|-----------------|------------------|-----------|
B|-----------------|-----------------|------10--10--9\--|-----------|
G|--5--5--5--5--5--|--7--7--7--7--7--|--9---9---9---9\--|--2--2--1--|
D|--5--5--5--5--5--|--7--7--7--7--7--|--9---9---9---9\--|--2--2--2--|
A|--3--3--3--3--3--|--5--5--5--5--5--|--7---------------|--2--2--2--|
E|-----------------|-----------------|--0---------------|-----------|

e|-----------------|--------------------|---------------------|-------------|
B|-----------------|-----7--8--7--8--7--|-----9---------9-----|-------------|
G|--5--5--5--5--5--|--7--7--7--7--7--7--|--9--9---------9--7--|-----7--9p+--|
D|--5--5--5--5--5--|--7--7--7--7--7--7--|--9--9h11--11--9--7--|--9--7-------|
A|--3--3--3--3--3--|--5--5--5--5--5--5--|--7------------------|--9----------|
E|-----------------|--------------------|--0------------------|-------------|

e|-----------------|-----------------|--------------------------------------|
B|-----------------|-----------------|-----10--10--12p+--10------10p+--12p+-|
G|--5--5--5--5--5--|--7--7--7--7--7--|--9---------------------11------------|
D|--5--5--5--5--5--|--7--7--7--7--7--|--9-----------------------------------|
A|--3--3--3--3--3--|--5--5--5--5--5--|--7-----------------------------------|
E|-----------------|-----------------|--0-----------------------------------|

e|-----------------|-----------------|------------------|----------------|
B|-----------------|-----------------|------10--10--9\--|----------------|
G|--5--5--5--5--5--|--7--7--7--7--7--|--9---9---9---9\--|-----2----2-----|
D|--5--5--5--5--5--|--7--7--7--7--7--|--9---9---9---9\--|-----2----2-----|
A|--3--3--3--3--3--|--5--5--5--5--5--|--7---------------|-----2----2-----|
E|-----------------|-----------------|--0---------------|----------------|

Outro
e|-------------------------------------------|-------10--10---10---12p10----|
B|--10br--8h10p8----------8--10--8--7--------|--10b------10b--10b-----------|
G|----------------9--------------------7-----|------------------------------|
D|-------------------10-------------------7--|------------------------------|
A|-------------------------------------------|------------------------------|
E|-------------------------------------------|------------------------------|

e|------10--12---------------------------|
B|--12----------12p10------10------------|
G|---------------------12------12--9--1--|
D|------------------------------------2--|
A|------------------------------------2--|
E|---------------------------------------|

e|--------------------|--------------------|----------------------|
B|-----5--6--5--6--5--|-----7--8--7--8--7--|------10--10--9\------|
G|--5--5--5--5--5--5--|--7--7--7--7--7--7--|--9---9---9---9\---2--|
D|--5--5--5--5--5--5--|--7--7--7--7--7--7--|--9---9---9---9\---2--|
A|--3--3--3--3--3--3--|--5--5--5--5--5--5--|--7----------------2--|
E|--------------------|--------------------|--0-------------------|

e|-----------------------------------------------------------|
B|--12--10------12hbr--10h12--12hbr--10--8-------------------|
G|----------12------------------------------9br--7h9--9--7---|
D|-----------------------------------------------------------|
A|-----------------------------------------------------------|
E|-----------------------------------------------------------|

e|------------------------------------|
B|------------------------------------|
G|------------------------------------|
D|--7--5------------------------5-----|
A|--------7--5--7p5-----7p5--------7--|
E|-------------------7-------7--------|

e|--------------------|--------------------|------------------2--|
B|-----5--6--5--6--5--|-----7--8--7--8--7--|------10--10--9---3--|
G|--5--5--5--5--5--5--|--7--7--7--7--7--7--|--9---9---9---9---2--|
D|--5--5--5--5--5--5--|--7--7--7--7--7--7--|--9---9---9---9---0--|
A|--3--3--3--3--3--3--|--5--5--5--5--5--5--|--7------------------|
E|--------------------|--------------------|--0------------------|

e|------2-------2-----------------|
B|------3-------3-----------------|
G|--2---2---2---2---2-------------|
D|--2---0---2---0---2---------2---|
A|--0-------0-------0---------2---|
E|---------------------3--3---0---|

Guitar II ( Overdriven)

Intro and 1st solo
e|--------------|--------------------3--|-----------------|--------------|
B|--------------|--------------------3--|-----------------|--------------|
G|--------------|-----2--2--1--------0--|--2--------------|----2--2--1---|
D|--------0--2--|-----2--2--2--------0--|--2--------0--2--|----2--2--2---|
A|--0--2--------|-----2--2--2--------2--|--0--0--2--------|----2--2--2---|
E|--------------|--0-----------0--2--3--|-----------------|-0------------|

e|----------------------------------------------------------------------|
B|--15b--15pbr--12------------------------------------------------------|
G|------------------14--12~~--14p+--12~~--------------------------------|
D|----------------------------------------14--14p12---------------------|
A|---------------------------------------------------14--12--11~~~~~~~~-|
E|----------------------------------------------------------------------|

e|--------3--|-----------------|------------------------|
B|--------3--|-----------------|--------------15b--15b--|
G|--------0--|--2--------------|-----2--2--1------------|
D|--------0--|--2--------0--2--|-----2--2--2------------|
A|--------2--|--0--0--2--------|-----2--2--2------------|
E|--0--2--3--|-----------------|--0---------------------|

1st Verse
e|--------------------3--|-----------------|------------2--|
B|--------------------3--|-----------------|------------3--|
G|-----2--2--1--------0--|--2--------------|-----2--1---2--|
D|-----2--2--2--------0--|--2--------0--2--|-----2--2---0--|
A|-----2--2--2--------2--|--0--0--2--------|-----2--2------|
E|--0-----------0--2--3--|-----------------|-0-------------|

e|-----------------|--------------------3--|------------------|
B|-----------------|--------------------3--|------------------|
G|--2--------------|-----2--2--1--------0--|--2---------------|
D|--2--------0--2--|-----2--2--2--------0--|--2--------0--2---|
A|--0--0--2--------|-----2--2--2--------2--|--0--0--2---------|
E|-----------------|--0-----------0--2--3--|------------------|

e|----------------2-------|--2--2-------------------|
B|----------------3-------|--3--3-------------------|
G|------2--2--1---2---2---|--2--2------2--2------2--|
D|------2--2--2---0---2---|--0--0------2--2------2--|
A|------2--2--2-------0---|--------3b--0--0--3b--0--|
E|--0---------------------|-------------------------|

e|--2--2-------------------|--2--2-----------------|
B|--3--3-------------------|--3--3-----------------|
G|--2--2------2--2------2--|--2--2------2--2--3/4--|
D|--0--0------2--2------2--|--0--0------2--2--3/4--|
A|--------3b--0--0--3b--0--|--------3b--0--0--1/2--|
E|-------------------------|-----------------------|

e|---------------------------------|--------------------|
B|---------------------------------|--9--11bh-----------|
G|--4--4--4--4--4--4-------2--2----|-----------11br--9--|
D|--4--4--4--4--4--4-------2--2----|--------------------|
A|--2--2--2--2--2--2--14\--0--0----|--------------------|
E|--------------------14\----------|--------------------|

e|---------------------------------------------------------|
B|------------------9--11hb-----------13b--12p9------------|
G|------9--11br--9-----------11br--9-------------12--11p9--|
D|--11-----------------------------------------------------|
A|---------------------------------------------------------|
E|---------------------------------------------------------|

2nd Verse
e|--------------------3--|-----------------|------------2--|
B|--------------------3--|-----------------|------------3--|
G|-----2--2--1--------0--|--2--------------|-----2--1---2--|
D|-----2--2--2--------0--|--2--------0--2--|-----2--2---0--|
A|-----2--2--2--------2--|--0--0--2--------|-----2--2------|
E|--0-----------0--2--3--|-----------------|-0-------------|

e|-----------------|--------------------3--|------------------|
B|-----------------|--------------------3--|------------------|
G|--2--------------|-----2--2--1--------0--|--2---------------|
D|--2--------0--2--|-----2--2--2--------0--|--2--------0--2---|
A|--0--0--2--------|-----2--2--2--------2--|--0--0--2---------|
E|-----------------|--0-----------0--2--3--|------------------|

e|----------------2-------|--2--2-------------------|
B|----------------3-------|--3--3-------------------|
G|------2--2--1---2---2---|--2--2------2--2------2--|
D|------2--2--2---0---2---|--0--0------2--2------2--|
A|------2--2--2-------0---|--------3b--0--0--3b--0--|
E|--0---------------------|-------------------------|

e|--2--2-------------------|--2--2-----------------|
B|--3--3-------------------|--3--3-----------------|
G|--2--2------2--2------2--|--2--2------2--2--3/4--|
D|--0--0------2--2------2--|--0--0------2--2--3/4--|
A|--------3b--0--0--3b--0--|--------3b--0--0--1/2--|
E|-------------------------|-----------------------|

e|--------------------|--------------------3--|-----------------|
B|--------------------|--------------------3--|-----------------|
G|--4--4--4--4--4--4--|-----2--2--1--------0--|--2--------------|
D|--4--4--4--4--4--4--|-----2--2--2--------0--|--2--------0--2--|
A|--2--2--2--2--2--2--|-----2--2--2--------2--|--0--0--2--------|
E|--------------------|--0-----------0--2--3--|-----------------|

e|----------------2-------|
B|----------------3-------|
G|------2--2--1---2---2---|
D|------2--2--2---0---2---|
A|------2--2--2-------0---|
E|--0---------------------|

1st Chorus
e|--------------------|--------------------|------------------|-----------|
B|-----5--6--5--6--5--|-----7--8--7--8--7--|------10--10--9\--|-----------|
G|--5--5--5--5--5--5--|--7--7--7--7--7--7--|--9---9---9---9\--|--2--2--1--|
D|--5--5--5--5--5--5--|--7--7--7--7--7--7--|--9---9---9---9\--|--2--2--2--|
A|--3--3--3--3--3--3--|--5--5--5--5--5--5--|--7---------------|--2--2--2--|
E|--------------------|--------------------|--0---------------|-----------|

e|--------------------|--------------------|------------------|--2-------|
B|-----5--6--5--6--5--|-----7--8--7--8--7--|------10--10--9\--|--3-------|
G|--5--5--5--5--5--5--|--7--7--7--7--7--7--|--9---9---9---9\--|--2---2---|
D|--5--5--5--5--5--5--|--7--7--7--7--7--7--|--9---9---9---9\--|--0---2---|
A|--3--3--3--3--3--3--|--5--5--5--5--5--5--|--7---------------|------0---|
E|--------------------|--------------------|--0---------------|----------|

Bridge and main solo
   P.M.--------------------|
e|--------------------------|---------------------|
B|-----------------------5--|--------------5------|
G|--2--2--2--2--2--2--4--6--|--4---4---2---6---4--|
D|--2--2--2--2--2--2--4--6--|--4---4---2---6---4--|
A|--0--0--0--0--0--0--2--4--|--2---2---0---4---2--|
E|--------------------------|---------------------|
       
e|-----------------------------------------------|--------------------|
B|--------12--12--12p10------10------------------|-------------5------|
G|--9/11----------------11------9p7-----9--7-----|--4--4---2---6---4--|
D|-----------------------------------9--------9--|--4--4---2---6---4--|
A|-----------------------------------------------|--2--2---0---4---2--|
E|-----------------------------------------------|--------------------|

e|-------------------------------|
B|--15p12--12--15--17br--15------|
G|---------------------------17--|
D|-------------------------------|
A|-------------------------------|
E|-------------------------------|

2nd Chorus
e|--------------|--------------------|------------------|-----------|
B|--6--5--6--5--|-----7--8--7--8--7--|------10--10--9\--|-----------|
G|--5--5--5--5--|--7--7--7--7--7--7--|--9---9---9---9\--|--2--2--1--|
D|--5--5--5--5--|--7--7--7--7--7--7--|--9---9---9---9\--|--2--2--2--|
A|--3--3--3--3--|--5--5--5--5--5--5--|--7---------------|--2--2--2--|
E|--------------|--------------------|--0---------------|-----------|

e|--------------------|--------------------|------------------|-----------|
B|-----5--6--5--6--5--|-----7--8--7--8--7--|------10--10--9\--|-----------|
G|--5--5--5--5--5--5--|--7--7--7--7--7--7--|--9---9---9---9\--|--2--2--1--|
D|--5--5--5--5--5--5--|--7--7--7--7--7--7--|--9---9---9---9\--|--2--2--2--|
A|--3--3--3--3--3--3--|--5--5--5--5--5--5--|--7---------------|--2--2--2--|
E|--------------------|--------------------|--0---------------|-----------|

e|--------------------|--------------------|------------------|-----------|
B|-----5--6--5--6--5--|-----7--8--7--8--7--|------10--10--9\--|-----------|
G|--5--5--5--5--5--5--|--7--7--7--7--7--7--|--9---9---9---9\--|--2--2--1--|
D|--5--5--5--5--5--5--|--7--7--7--7--7--7--|--9---9---9---9\--|--2--2--2--|
A|--3--3--3--3--3--3--|--5--5--5--5--5--5--|--7---------------|--2--2--2--|
E|--------------------|--------------------|--0---------------|-----------|

e|--------------------|--------------------|--------------------------|
B|-----5--6--5--6--5--|-----7--8--7--8--7--|------10--10--9\----------|
G|--5--5--5--5--5--5--|--7--7--7--7--7--7--|--9---9---9---9\----2-----|
D|--5--5--5--5--5--5--|--7--7--7--7--7--7--|--9---9---9---9\----2-----|
A|--3--3--3--3--3--3--|--5--5--5--5--5--5--|--7-----------------2-----|
E|--------------------|--------------------|--0-----------------------|

Outro Solo
e|--------|--------------------|--------------------|-----------------------|
B|--------|-----5--6--5--6--5--|-----7--8--7--8--7--|------10--10--9\-------|
G|--2--1--|--5--5--5--5--5--5--|--7--7--7--7--7--7--|--9---9---9---9\--2--2-|
D|--2--2--|--5--5--5--5--5--5--|--7--7--7--7--7--7--|--9---9---9---9\--2--2-|
A|--2--2--|--3--3--3--3--3--3--|--5--5--5--5--5--5--|--7---------------2--2-|
E|--------|--------------------|--------------------|--0--------------------|

e|--------------------------------------------------3----------------|
B|---------------------------------------------3/5-----5--8--10b-----|
G|-----------------------------0--2br--2p0--2------------------------|
D|-------0--2------/\/\/\/\/\----------------------------------------|
A|--2/3------\----/--------------------------------------------------|
E|------------\--/---------------------------------------------------|
               \/
e|--10--10--10------------------------------12------------------------------|
B|--------------10br--8-----8--10--8-----8------10br--8--10--8--------------|
G|-----------------------9------------9-------------------------9------/\/\-|
D|---------------------------------------------------------------\----/-----|
A|----------------------------------------------------------------\--/------|
E|-----------------------------------------------------------------\/-------|

e|-----------------|--------------------|------------------|-----------|
B|--5--6--5--6--5--|-----7--8--7--8--7--|------10--10--9\--|-----------|
G|--5--5--5--5--5--|--7--7--7--7--7--7--|--9---9---9---9\--|--2--2--1--|
D|--5--5--5--5--5--|--7--7--7--7--7--7--|--9---9---9---9\--|--2--2--2--|
A|--3--3--3--3--3--|--5--5--5--5--5--5--|--7---------------|--2--2--2--|
E|-----------------|--------------------|--0---------------|-----------|

e|-------------------------|--15--17b--17b--17br--15------17p15----|
B|---------17------17--17--|--------------------------17-----------|
G|--14/16------16----------|---------------------------------------|
D|-------------------------|---------------------------------------|
A|-------------------------|---------------------------------------|
E|-------------------------|---------------------------------------|

e|------17------15-------------------------|--------------------------------|
B|--17------17------17---------17--15------|--------------------------------|
G|----------------------14/16----------16--|--14br--12------12--14--12------|
D|-----------------------------------------|------------14--------------14--|
A|-----------------------------------------|--------------------------------|
E|-----------------------------------------|--------------------------------|

e|-----------------------------|-------12-------12-------12--12-------12---|
B|-----------15----------------|--15b------15b------15b----------15b-------|
G|--12--14b------14br--12------|-------------------------------------------|
D|-------------------------14--|-------------------------------------------|
A|-----------------------------|-------------------------------------------|
E|-----------------------------|-------------------------------------------|

e|-------------------------------------------|
B|-------------------------15----------------|
G|--14br--12------12--14b------14br--12------|
D|------------14-------------------------14--|
A|-------------------------------------------|
E|-------------------------------------------|

************************************

| /   slide up
| \   slide down
| h   hammer-on
| p   pull-off
| ~   vibrato
| +   harmonic
| x   Mute note
| b   Bend
| pb  Pre-bend
| br  Bend release
| pbr Pre-bend release
| brb Bend release bend
| hb  Half bend
| p+  Pinch harmonic
************************************
Intro

E  Esus  E   G  A

E  Esus  E   D  A

E  Esus  E   G  A
oo-oo-oo Oh Yeah Yeah Yeah

E  Esus   E  D  A
                Ah 

1st Verse

          E  Esus  E         G         A
She was a roller and a midnight stroller 

E    Esus  E        D   A
used to walk in the night 

         E Esus E G       A
a little teaser full time pleaser 

E    Esus    E     D  A
standin' under the light 

D        C     A     C  A        
lookin' for a buyer 

            D     C   A   C  A
that was lookin' to hire 

D    C   A               B     A
ooh her services day or night 

N.C.
yeah and she's payin' for it now 

E  Esus  E  G  A

        E   Esus  E  D  A    
ah payin'for it now 

2nd Verse

       E  Esus        G          A
Come a day when her looks faded away 

E    Esus   E          D  A
her outside beauty was gone 

      E Esus E  G         A
yet inside still had her pride 

E     Esus  E             D    A
don't you know life goes on 

D          C     A    C  A
tryin' to stay young 

D       C     A    C  A    
always on the run 

D       C    A          B
livin' her life in the streets 

E    Esus      E    G           A              E    Esus  D  A
now they look away this is the price that she pays 


1st Chorus

C       Cm7  C  Cm7  C
  She's payin' for it 

D       Dm7  D  Dm7  D E   Em7  E  Esus E
  She's payin' for it now 

C        Cm7 C  Cm7 C
ah She's payin' for it 

D       Dm7  D  Dm7 D  E   Esus  E  D  A
  She's payin' for it now 

Bridge and solo

B  Db B     A  Db   B  D  A  B
   Ah Ah Ah Ah Ah Ah 

Db B     A  Db  B  D  A
Ah Ah Ah Ah Ah Ah 

2nd Chorus

   C       Cm7  C  Cm7  C
oh She's payin' for it 

D       Dm7  D  Dm7  D E   Em7  E  Esus E
She's payin' for it now 

  C      Cm7  C  Cm7  C
ah She's payin' for it 

D       Dm7  D  Dm7  D E   Em7  E  Esus E
She's payin' for it now oh payin for it now 

C      Cm7  C  Cm7  C
  She's payin' for it 

D       Dm7  D  Dm7  D E   Em7                 E        Esus       E
She's payin' for it now ah She's payin' for it She's payin' for it now

Outro

C  Cm7  C  Cm7  C 

D  Dm7  D  Dm7  D

E  Em7  Esus  E

C  Cm7  C  Cm7  C 

D  Dm7  D  Dm7  D

E  Em7  Esus  E

C  Cm7  C  Cm7  C 

D  Dm7  D  Dm7  D

E  Em7  Esus  E

C  Cm7  C  Cm7  C 

D  Dm7  D  Dm7  D

E  Em7  Esus  E

D  A  D  A  D  G  E
Добавлено: 28.03.2012
Другие материалы по этой песне:

Страница создана 22.02.2012
http://primanota.ru/blackfoot/payin-for-it-chords.htm
Привет, Гость.
Предлагаем пройти революционный курс по гитаре.
Подарок от PrimaNota.Ru, забирай!